» 
 » 
Georgia Boys



Adam Young - Georgia Boys - tab

Чайковский в рок-аранжировке! Очень необычно, послушай!
[Intro]
e|---------------------------------------------------------------------------|
B|---12---------------12----------------12----------------12-----------------|
G|-9---9-9-11-9h12--9---9-9-11-9h12-------9----11--12-------9----11--12------|
D|------9----------------9-----------12----9h12--12----12----9h12--12--------|
A|---------------------------------------------------------------------------|
E|---------------------------------------------------------------------------|

e|---------------------------------------------------------------------------|
B|----12----------------12----------------12----------------12---------------|
G|------9----11--12-------9----11--12-------9----11--12-------9---11---------|
D|-11----9h11--11----11----9h11--11----10----9h10--10----------9------12-----|
A|-------------------------------------------------------12-----12--12-------|
E|---------------------------------------------------------------------------|

(Repeat that while)
e|---------------------------------------------------------------------------|
B|---------------------------------------------------------------------------|
G|---------------------------------------------------------------------------|
D|-14--------------------------------12--------------------------------------|
A|-x---------------------------------x---------------------------------------|
E|-12--------------------------------10--------------------------------------|

e|---------------------------------------------------------------------------|
B|---------------------------------------------------------------------------|
G|---------------------------------------------------------------------------|
D|-11--------------------------------10------------------7-------------------|
A|-x---------------------------------x-------------------x-------------------|
E|-9---------------------------------8-------------------5-------------------|


************************************

| h  Hammer-on
| x  Dead note

************************************   

Adam Young - Georgia Boys - sheets and scores

(enable)
You can be interested to:
Another song content:
  • Chords, lyrics

https://primanota.net/adam-young/georgia-boys-chords.htm