Login via:  Facebook Google Twitter Vk Yandex Mail.ru
PrimaNota.net - world's largest free sheets, tabulatures, chords and lyrics archive


Ariana Grande - Get Well Soon - chords, lyrics

Print
ViraMusic 2019 в Петербурге 4 апреля 2019! Скидка 10%!

View chords, lyrics "Get Well Soon"

Version

Get Well Soon
Ariana Grande
This is my interpretation of the left hand of the piano on a guitar. There's a fast chord change at 0:38
that couldn't figure out so you're on your own there. 


e|-------------------------------------------------------------------------|
B|-------------------------------------------------------------------------|
G|-------------------------------------------------------------------------|   
D|-----------3--5-5---------------------2--2-2---1--1-1---2--2-2---1--1-1--|
A|--2--2-2---2--2-2---2--2-2---3--2-2---3--3-3---3--3-3---3--3-3---3--3-3--|
E|--3--3-3---3--3-3---3--3-3---1--3-3--------------------------------------|

Little descending melody...
e|---------------------------------------------|
B|---------------------------------------------|
G|---------------------------------------------|   
D|--2--2-2---1--1-1----------------------------|
A|--3--3-3---3--3-3---3--5-5---7--5-5----------|
E|--------------------3--3-3---3--3-3----------|

e|-------------------------------------------------------------------------|
B|-------------------------------------------------------------------------|
G|-------------------------------------------------------------------------|   
D|-----------3--5-5---------------------2--2-2---1--1-1---2--2-2---1--1-1--|
A|--2--2-2---2--2-2---2--2-2---3--2-2---3--3-3---3--3-3---3--3-3---3--3-3--|
E|--3--3-3---3--3-3---3--3-3---1--3-3--------------------------------------|

Descending melody...
e|---------------------------------------------|
B|---------------------------------------------|
G|---------------------------------------------|  
D|--2--2-2---1--1-1----------------------------|
A|--3--3-3---3--3-3---3--5-5---7--5-5----------|
E|--------------------3--3-3---3--3-3----------|

e|---------------------------------------------|
B|--5----7----8-------5----7----8----7---------|
G|--5----7----9-------5----7----9----7---------| x4
D|--5----7----10------5----7----10---7---------|
A|---------------------------------------------|
E|--5----7----8-------5----7----8----7---------|

You can feel it, feel it
Yeah, yeah
They say my system is overloaded
(Girl, what's wrong with you? Come back down)
I'm too much in my head, did you notice?
(Girl, what's wrong with you? Come back down)
My body's here on Earth, but I'm floating
(Girl, what's wrong with you? Come back down)
Disconnected, so sometimes, I feel frozen and alone
This is for everybody
Babe, you gotta take care of your body, yuh yuh
Ain't no time to deny it, that is why we talking about it
Yeah, we talking about it
So deal with it, don't try to get by it
Ain't no time to deny it
So we had to sit down and just write it
Want you to get better (woo!)
My life is so controlled by the what if's
(Girl, what's wrong with you? Come back down)
Is there anybody else whose mind does this, mmm?
(Girl, what's wrong with you? Come back down)
Down, down, down, down
Is there such a ladder to get above this?
(Down, down, down, down, down, down, down, down)
(Girl, what's wrong with you? Come back down)
Maybe I should ground myself where the mud is
Before I'm gone
This is for everybody
Babe, you gotta take care of your body, yuh yuh
Ain't no time to deny it, that is why we talking about it
Yeah, we talking about it
So deal with it, don't try to get by it
Ain't no time to deny it
So we had to sit down and just write it
You can work your way to the top
(You can feel it, feel it, woo)
Just know that there's up and downs and there's drops
(You can feel it, feel it, woo)
Unfollow fear and just say, "You are blocked"
(You can feel it, feel it, yuh)
Just know there is so much room at the top
(You can feel it, feel it, yuh)
Well here's one thing you can trust, yuh
It takes you and me to make us
One of those days you had enough, I'll be there, yuh yuh yuh
If it ain't one thing, it's another
When you need someone to pull you out the bubble
I'll be right there just to hug you, I'll be there
Where are you? Are you homC? Call me right on the phone
I'll be there, yeah, I'll be there
I don't care who is gone, you shouldn't be alone
I'll be there, there
You can work your way to the top (woo!)
(You can feel it, feel it, woo)
(I'm with you, I'm with you, I'm with you, just call me
I'm with you, I'm with you)
Just know that there's up and downs and there's drops
(You can feel it, feel it babe)
(I'm with you, I'm with you, I'm with you, just call me
I'm with you, I'm with you)
Unfollow fear and just say, "You are blocked"
(You can feel it, feel it, yuh)
(I'm with you, I'm with you, I'm with you, just call me
I'm with you, I'm with you)
Just know there is so much room at the top
(You can feel it, feel it, yeh)
(I'm with you, I'm with you, I'm with you, just call me
No matter the issue)
No matter what, uh uh uh
Here's one thing you can trust, yuh
It takes you and me to make us
One of those days you had enough, I'll be there, I'll be there
If it ain't one thing, it's another
When you need someone to pull you out the bubble
I'll be right there just to hug you, I'll be there
Where are you? Are you homC? Call me right on the phone
I'll be there, yeah, I'll be there, I'll be there
I don't care who is gone, you shouldn't be alone
I'll be there, ooh, there
You can work your way to the top
(You can feel it, feel it)
https://primanota.net/ariana-grande/get-well-soon.htm