Login via:  Facebook Google Twitter Vk Yandex Mail.ru
PrimaNota.net - world's largest free sheets, tabulatures, chords and lyrics archive


Badflower - Soap - табы

Нотный режим - новая уникальная возможность на нашем сайте!
[Intro]
e|-0----------------------0----------------------------------------------------|
B|-0----------------------0----------------------------------------------------|
G|-x----------------------------0----------------------------------------------|
D|-2----------------------------0----------------------------------------------|
A|-2---------------------------------------------------------------------------|
E|-0----------------0----------------------------------------------------------|

[Verse]
e|-0---------------------------------------------------------------------------|
B|-0---------------------------------------------------------------------------|
G|-x---------------------------------------------------------------------------|
D|-2---------------------------------------------------------------------------|
A|-2---------------------------------------------------------------------------|
E|-0---------12-12-12-12-12-12-12-12-12-12-12-12-12-12-12-12-12-12-12-12-12-12-| (Palm mute this section)

[Chorus]
e|-----------------------------------------------------------------|
B|-----------------------------------------------------------------|
G|-----------------------------------------------------------------|
D|-----------------------------------------------------------------|
A|---------------------7-------------------------------------------|
E|-12-12-12-12-----0-------8---7-6-----2----7----2h-3p-2h-3p----0--| (x2)

[Post-Chorus]
e|-0-----------------3---------------------------------------------------------|
B|-0-------0~--------0---------------------------------------------------------|
G|-x-------0~--------x---------------------------------------------------------|
D|-2-------0~--------2---------------------------------------------------------|
A|-2-------10~-------2---------------------------------------------------------|
E|-0-----------------0---------------------------------------------------------|

[Verse]
e|-0---------------------------------------------------------------------------|
B|-0---------------------------------------------------------------------------|
G|-x---------------------------------------------------------------------------|
D|-2---------------------------------------------------------------------------|
A|-2---------------------------------------------------------------------------|
E|-0---------12-12-12-12-12-12-12-12-12-12-12-12-12-12-12-12-12-12-12-12-12-12-| (Palm mute this section)

[Chorus]
e|---------------------------------------------------------------------------|
B|---------------------------------------------------------------------------|
G|---------------------------------------------------------------------------|
D|---------------------------------------------------------------------------|
A|---------------------7-----------------------------------------------------|
E|-12-12-12-12-----0-------8---7-6-----2----7----2h-3p-2h-3p----0------------| (x2)

[Solo]
(Part 1)
e|---------------------------------------------------------------------------------------------|
B|---------------------------------------------------------------------------------------------|
G|---------------------------------------------------------------------------------------------|
D|----------------------------------------5--7----------------------------------------5--4-----|
A|-5--7-7---5--7-7---5--7-7---5--7--7-----5--7---5--7-7---5--7-7---5--7-7---5--7-7----5--4-----|
E|----------------------------------------3--5----------------------------------------3--2-----|(x2)

(Part 2)
e|------------------------------------------------------------------------------------------------|
B|------------------------------------------------------------------------------------------------|
G|------------------------------------------------------------------------------------------------|
D|-12--14--12--14--12--14--12--14--12-------------12--14--12--14--12--14--12--14--12--------------|
A|------------------------------------------------------------------------------------------------|
E|---------------------------------------15--17----------------------------------------15--14-----|(x2)

[Chorus]
(Slight variations)
e|-------------------------------------------------------------------------|
B|-------------------------------------------------------------------------|
G|-------------------------------------------------------------------------|
D|------------------------------------------2------------------------------|
A|-----7------------------------------------2------------------------------|
E|-0------8---7--6----2----7---2h-3p-2h-3p--0------------------------------|(x3)

e|-------------------------------------------------------------------------|
B|-------------------------------------------------------------------------|
G|-------------------------------------------------------------------------|
D|-9-7---------------------------------------------------------------------|
A|-----10-9--7-------------------------------------------------------------|
E|--------------8---7--6----2----7---2h-3p-2h-3p---------------------------|

[Outro]
e|-0-----0-------0------0-----0-----0-----0---0--0--0--0----0--------------------------------|
B|-0-----0-------0------0-----0-----0-----0---0--0--0--0----0--------------------------------|
G|-0-----0-------0------0-----0-----0-----0---0--0--0--0----0--------------------------------|
D|-2-----x-------x------x-----x-----x-----x---0--0--0--0----2--------------------------------|
A|-2-----7-------7------6-----5-----1-----6---x--x--x--x----2--------------------------------|
E|-0-------------8------7-----6-----2-----7---2--3--2--3----0--------------------------------|(x2)

e|-0~~~--------------------------------------------------------------------------|
B|-0~~~--------------------------------------------------------------------------|
G|-0~~~--------------------------------------------------------------------------|
D|-2~~~--------------------------------------------------------------------------|
A|-2~~~--------------------------------------------------------------------------|
E|-0~~~--------------------------------------------------------------------------|


************************************

| x  Dead note
| h  Hammer-on
| p  Pull-off
| ~  Vibrato

************************************   

Badflower - Soap - sheets and scores

(enable)
You can be interested to:
Another song content:
  • Chords, lyrics

https://primanota.net/badflower/soap-chords.htm