Login via:  Facebook Google Twitter Vk Yandex Mail.ru
PrimaNota.net - world's largest free sheets, tabulatures, chords and lyrics archive


Beloved - Aimless Endevor - tab

  • chords, lyrics

h=hammer on
p=pull off
~=vibrato
so=slide out 
E|-----------------------------------------------------|\
a|-----------------------------------------------------| \
d|-------------------9---------------------------------|  \ X8
g|--------------7-9------------------------------------|  /
b|--7h-8p-7-0------------------------------------------| /
e|-----------------------------------------------------|/

E|-----------------------------------------------------|
a|-----------------------------------------------------|
d|-----------------------------------------------------|
g|-----------------------------------------------------|
b|-------------15~---------------------------------15~-|
e|14-14-14-14------14-14-14-14----12~--14-14-14-14-----|

E|-----------------------------------------------------|
a|-----------------------------------------------------|
d|-----------------------------------------------------|
g|--------11so----12so---------------------------------|
b|-12so------------------------------------------------|
e|-----------------------------------------------------|


this is my first tab.hope u enjoy. i think its 99.99% right.   
https://primanota.net/beloved/aimless-endevor-chords.htm