Login via:  Facebook Google Twitter Vk Yandex Mail.ru
PrimaNota.net - world's largest free sheets, tabulatures, chords and lyrics archive


Beloved - Watching The Lines Blur - lyrics, bass tab

Print
ViraMusic 2019 в Петербурге 4 апреля 2019! Скидка 10%!

Watching The Lines Blur

  • chords, lyrics

Band: Beloved (us)
Song: Watching The Lines Blur
Album: Failure On
Tabbed by: choke383
Drop D Tuning: GDAD



0:12
G|----------------------------------|
D|----------------------------------|
A|77777777--------3333333355555555--|
D|--------55555555------------------|x4


0:37
G|-----------------|
D|-----------------|
A|-----------------|
D|22-2222--222222--|

G|--------------|
D|--------------|
A|--------------|
D|2222--222222--|x5

G|---------------------------|
D|---------------------------|
A|------------------------6--|
D|2222--222222222222222585---|


0:59
G|-------------------------------|
D|-------------------------------|
A|----------------------------6--|
D|11111--11111--11111--5555585---|x3

G|-------------------------------|
D|-------------------------------|
A|-------------------------------|
D|11111--11111--11111--55555851--|

G|-----------------------------------------------|
D|-----------------------------------------------|
A|-----------------------------------------------|
D|1111-1111-1-1-1111-1111-1-1-1111-111155555851--|x3

G|----------------------------------------------|
D|----------------------------------------------|
A|----------------------------------------0--3--|
D|1111-1111-1-1-1111-1111-1-1-1111-11113--------|


1:43
G|------------------------|
D|------------------------|
A|------------------------|
D|2--2--2-2----0--0--0-0--|x8

G|----------------------------------|
D|----------------------------------|
A|------0000000000------3333333333--|
D|222222----------555555------------|x4

G|--------------|
D|--------------|
A|--------------|
D|2--2--x-2--2--|x9



Any comments, questions or jokes send to style444@hotmail.com   
Another song content:
  • Chords, lyrics

https://primanota.net/beloved/watching-the-lines-blur-chords.htm