Login via:  Facebook Google Twitter Vk Yandex Mail.ru
PrimaNota.net - world's largest free sheets, tabulatures, chords and lyrics archive


Celine Dion - Destin - tab, lyrics

Print
ViraMusic 2019 в Петербурге 4 апреля 2019! Скидка 10%!

View tab, lyrics "Destin"

Version

intro :
C D G C Am G C D4
-----0-------2---|-----3-----3---3-|-----0-------3---|---3---3-------3-|-2-0-2-3
---1-------3-----|---3-------------|---1-------3---3-|-------------3---|--------
-0-----2---------|-4-----5-----4---|-2-----4---------|-5---4-----2-----|--------
-----------------|-----------------|-----------------|---------0-------|--------
-----------------|-----------------|-----------------|-----------------|--------
-----------------|-----------------|-----------------|-----------------|--------

verse :
G D4 C2 G G D4 C2 D
-----3-------3---|-----3-------3---|-----3-------3---|-----3-------2-3-|
---3-------3---3-|---3-------3---3-|---3-------3---3-|---3-------3-----|
---------2-------|---------0-------|---------2-------|---------2-------|
-------0---------|-----------------|-------0---------|-------0---------|
-----------------|-3---------------|-----------------|-3---------------|
-3---------------|-------3---------|-3---------------|-----------------|

Em D4 C G Am G C D
-----0-------3---|-------------3---|-------------3---|-----0-------2-3-|
---0-------3---3-|-----1-----3---3-|-----1-----3---3-|---1-------3-----|
---------2-------|---0-----0-------|---2-----0-------|---------2-------|
-2-----0---------|-----------------|-----------------|-------0---------|
-----------------|-3-----2---------|-0-----2---------|-3---------------|
-----------------|-----------------|-----------------|-----------------|

G D4 C2 G
Y'a pas de voiles aux volets de mes freres
G D4 C2 D
Y'a pas d'opale autour de mes doigts
Em D4 C G
Ni cathedrale ou cacher mes prieres
Am G C D
Juste un peu d'or autour de ma voix

Je vais les routes et je vais les frontieres
Je sens, j'ecoute, et j'apprends, je vois
Le temps s'egoutte au long des fuseaux horaires
Je prends, je donne, avais-je le choix ?

C D Em
Tel est mon destin
C D Em
Je vais mon chemin
C D G C
Ainsi passent mes heures
Am G/B C D
Au rythme entetant des battements de mon coeur

Des feux d'ete je vole aux sombres hivers
Des pluies d'automne aux etes indiens
Terres gelees aux plus arides deserts
Je vais je viens, ce monde est le mien

Je vis de notes et je vis de lumiere
Je virevolte a vos cris, vos mains
La vie m'emporte au creux de tous ses mysteres
Je vois dans vos yeux mes lendemains

Tel est mon destin
Je vais mon chemin
Ainsi passent mes heures
Au rythme entetant des battements de mon coeur

Je vais les routes et je vais les frontieres
Je sens, j'ecoute, et j'apprends, je vois
Le temps s'egoutte au long des fuseaux horaires
Je prends, je donne, avais-je le choix ?

Je prends le blues aux signaux des repondeurs
Je prends la peine aux aeroports
Je vis l'amour a des kilometres ailleurs
Et le bonheur a mon telephone

Tel est mon destin
Je vais mon chemin
Ainsi passent mes heures
Au rythme entetant des battements de mon coeur

w/ solo :
|: G C G D | Em C G D | Em C G D | Em C G D || Am Em | C G D | Am Em | C D :|
   
https://primanota.net/celine-dion/destin.htm