Login via:  Facebook Google Twitter Vk Yandex Mail.ru
PrimaNota.net - world's largest free sheets, tabulatures, chords and lyrics archive


Corrosion Of Conformity - Tell Me - lyrics, tab

Print
ViraMusic 2019 в Петербурге 4 апреля 2019! Скидка 10%!

Tell Me

  • chords, lyrics

Authors: Woody Weatherman, Mike Dean, Reed Mullin

Standard Tuning

Kickass song from their early crossover thrash days.


[A Intro riff]

e|----------------------------|
B|----------------------------|
G|----------------------------|
D|-2-1-0-----------4-3---5----|
A|-------2-1-0---------4------|
E|-------------3-0------------|


[B Slow Funky riff]

          PM----|
e|--------------------------------------------|
B|--------------------------------------------|
G|--------------------------------------------|
D|--------------------------9\-8/-9--8---7----|
A|-6--8-8-8-8-8-8-8-6---6-8-7--6--7--6-9-5----|
E|-4--6-6-6-6-6-6-6-4---4-6------------7------|


[C Fast funky riff]

e|-------------------------------|
B|-------------------------------|
G|-------------------------------|
D|----------------6---6-8-9-8----|
A|-11-8-8-8-6-8-8-4-8-4-6-7-6----|
E|--9-6-6-6-4-6-6---6------------|


[Back to the slow riff] 

         PM----|
|--------------------------------------------|
|--------------------------------------------|
|--------------------------------------------|
|--------------------------9\-8/-9--8---7----|
|-6--8-8-8-8-8-8-8-6---6-8-7--6--7--6-9-5----|
|-4--6-6-6-6-6-6-6-4---4-6------------7------|


[and then intro again]

e|----------------------------|
B|----------------------------|
G|----------------------------|
D|-2-1-0-----------4-3---5----|
A|-------2-1-0---------4------|
E|-------------3-0------------|


[D Punk riff]

e|--------------------------------|
B|--------------------------------|
G|--------------------------------|
D|---------6-8--------------------|
A|-8-8-8-8-4-6-7-7-7-7-7-7-7-7----|
E|-6-6-6-6-----5-5-5-5-5-5-5-5----|


[E Alternate Punk Riff]

e|----------------------------|--------------------------|------|
B|----------------------------|--------------------------|------|
G|----------------------------|--------------------------|------|
D|------------5-5-5-5-5-5-5-5-|------------7-7-7-7-7-7-7-|-7----|
A|-4--7-7-6-6-3-3-3-3-3-3-3-3-|-4--8-8-7-7-5-5-5-5-5-5-5-|-5----|
E|-2--5-5-4-4-----------------|-2--6-6-5-5---------------|------|


[F Thrash Punk Riff]

e|----------------|
B|----------------|
G|----------------|
D|-8-6-8----------|
A|-6-4-6---5-7----|
E|-------0-3-5----|


[G Thrash Riff] with bluesy notes thrown in - use bends and hammer ons/pull offs


e|---------------------------------------------------|
B|---------------------------------------------------|
G|---------------------------------------------------|
D|-8-6---6---8-6---6b8----8-6---6h8-6h8-6h8-6h8-6----|
A|-6-4-------6-4----------6-4------------------------|
E|-----0---------0------------0----------------------|


[Back to Alternate Riff E] 

e|----------------------------|--------------------------|------|
B|----------------------------|--------------------------|------|
G|----------------------------|--------------------------|------|
D|------------5-5-5-5-5-5-5-5-|------------7-7-7-7-7-7-7-|-7----|
A|-4--7-7-6-6-3-3-3-3-3-3-3-3-|-4--8-8-7-7-5-5-5-5-5-5-5-|-5----|
E|-2--5-5-4-4-----------------|-2--6-6-5-5---------------|------|


[then Slow Funky] 

         PM----|
e|--------------------------------------------|
B|--------------------------------------------|
G|--------------------------------------------|
D|--------------------------9\-8/-9--8---7----|
A|-6--8-8-8-8-8-8-8-6---6-8-7--6--7--6-9-5----|
E|-4--6-6-6-6-6-6-6-4---4-6------------7------|


[then Fast Funky]

e|-------------------------------|
B|-------------------------------|
G|-------------------------------|
D|----------------6---6-8-9-8----|
A|-11-8-8-8-6-8-8-4-8-4-6-7-6----|
E|--9-6-6-6-4-6-6---6------------|


and finally a solo.

This is all played very messily and not clean at all.



************************************

| h  Hammer-on
| b  Bend
| /  Slide up
| \  Slide down
| PM Palm Mute

************************************   
https://primanota.net/corrosion-of-conformity/tell-me-chords.htm