Login via:  Facebook Google Twitter Vk Yandex Mail.ru
PrimaNota.net - world's largest free sheets, tabulatures, chords and lyrics archive


Daddy Yankee - Mayor Que Yo - tab, lyrics, video

Print
Лучшая metal-группа Петербурга

View tab, lyrics "Mayor Que Yo"

Version

Sta kncion, al igual q todas las dmas kncions d st genero,
tiene acordes faciles. Toda la kncion gira alrededor de
 LAm y MI... un tiempi cada nota, no seas desorejado...

[ch]E[/ch]
e|--0--
B|--5--
G|--7--
D|--6--
A|--7--
E|--0--

[ch]Am[/ch]

e|--5--
B|--5--
G|--5--
D|--7--
A|--7--
E|--5--


Intro

e|---------------------------------------------------------
B|--10-----------------------------------------------------
G|-----10-9------------------------------------------------
D|----------9-7--------------------------------------------
A|---------------------------------------------------------
E|---------------------------------------------------------

--------

e|---------------------------------------------------------
B|--------------13-12h13h12--------------15s13-------------
G|-----------14-----------------------14-------------------
D|--------14-----------------------14----------------------
A|--12-15--------------------12-15-------------------------
E|---------------------------------------------------------
    Este menor que usted...  la quiere conocr...

e|---------------------------------------------------------
B|--------------13-12h13h12--13-15-13-12-12h13h12----------
G|-----------14-----------------------------------14^------
D|--------14-----------------------------------------------
A|--12-15--------------------------------------------------
E|---------------------------------------------------------
    Por su forma d actuar... me va a nloqcr...

e|---------------------------------------------------------
B|--------------13-12h13h12--------------15s13-------------
G|-----------14-----------------------14-------------------
D|--------14-----------------------14----------------------
A|--12-15--------------------12-15-------------------------
E|---------------------------------------------------------
    [ch]A[/ch] tngo n [ch]E[/ch] soñar...    ......................

e|---------------------------------------------------------
B|--------------13-12h13h12--15s17^------------------------
G|-----------14--------------------------------------------
D|--------14-----------------------------------------------
A|--12-15--------------------------------------------------
E|---------------------------------------------------------
    le tngo q confsaaaaar... yoooo

e|-12-12-12-12-12-12-----------------------12-12-12-10-12-13-12-
B|-------------------13--13-15-13-12h13h12----------------------
G|--------------------------------------------------------------
   No m importa q ustd sea mayor q yo........ hoy la quiero n mi kma

e|-----------------------------------------12-12-12-10-12-13-12-
B|-13--13-13-13--13-13--------15-13-13s12-----------------------
G|---------------------14--14-----------------------------------
D|--------------------------------------------------------------
   y no malintrprt m intncion....          s q no aguanto las ganas

e|-----------------------------------------12-12-12-10-12-13-12-
B|-13--13-13-13--13-13--------15-13-13s12-----------------------
G|---------------------14--14-----------------------------------
D|--------------------------------------------------------------
   por es he vnido a pdirclo...            q hoy la quiero n mi kma

e|-----------------------------------------12-12-12-10-12-13-12-
B|-13--13-13-13--13-13--------15-13-13s12-----------------------
G|---------------------14--14-----------------------------------
D|--------------------------------------------------------------
   ...............................         ................

e|--------------------------------------------------------------
B|--------12-13-------------------------------------------------
G|-----14-------------------------------------------------------
D|--14----------------------------------------------------------
    dame un chance...

NO m importa q ustd sea mayor q yo...

(la ltra qviene ustds ya c sientan con lapiz y papel n mano
 a decifrar lo q dicn; este es el punteo q acn)

e|--7--7-7-7--7-7-8-10----7--7-7-7--7-7-8-10--------------------
B|--------------------------------------------------------------
G|--------------------------------------------------------------
D|--------------------------------------------------------------

e|--8--8-8-8--8-8-10-12---8--8-8-8--8-8-12----------------------
B|-----------------------------------------10-------------------
G|--------------------------------------------------------------
D|--------------------------------------------------------------


e|--7--7-7-7--7-7-8-10----7--7-7-7--7-7-8-10--------------------
B|--------------------------------------------------------------
G|--------------------------------------------------------------
D|--------------------------------------------------------------

e|--8--8-8-8--8-8-10-12---8--8-8-8--8-8-12----------------------
B|-----------------------------------------10-------------------
G|--------------------------------------------------------------
D|--------------------------------------------------------------

e|--10h8h7--7-7-7-8-10----10h8h7--7-7-7-8-10--------------------
B|--------------------------------------------------------------
G|--------------------------------------------------------------
D|--------------------------------------------------------------

e|--12h10h8--8-8-8-10-12---12h10h8--8-8-8-12--------------------
B|-------------------------------------------10-----------------
G|--------------------------------------------------------------
D|--------------------------------------------------------------

e|--10h8h7--7-7-7-8-10----10h8h7--7-7-7-8-10--------------------
B|--------------------------------------------------------------
G|--------------------------------------------------------------
D|--------------------------------------------------------------

e|--12h10h8--8-8-8-10-12---8----------8-------------------------
B|---------------------------10-10-10---10-10-10^---------------
G|--------------------------------------------------------------
D|--------------------------------------------------------------

N todo el tiempo stos tonos c tokn a la misma vlocidad, scuchn
la kncion para sabr cuando tokn puntean mas rapido, no t la doy
mastikda, si lo hago m knso, sudala un poco, cn sta ayuda suficiente

·»¤¦¤«· Ðanieli ·»¤¦¤«·   
https://primanota.net/daddy-yankee/mayor-que-yo.htm