Login via:  Facebook Google Twitter Vk Yandex Mail.ru
PrimaNota.net - world's largest free sheets, tabulatures, chords and lyrics archive


David Guetta - Blast Off - GuitarPro (GTP) tabs, video

Print
Лучшая metal-группа Петербурга

Download tabs "Blast Off"

Download all tabs in one archive:
Download tabs one by one:

View tab "Blast Off"

Version

-------------------------------------------------------------------------------
                             Blast Off - David Guetta solo
-------------------------------------------------------------------------------
Tabbed by:Fyjanek
E-mail:

Tuning: standart


e|-------------------|-------------------|-------------------|---2---------------|
B|-------------------|---4-----------5---|-----------5-------|-------2-----------|
G|-----------3---4---|-------4-----------|---4---------------|-----------4---3---|
D|-------------------|-----------6-------|-------6-------6---|-------------------|
A|-------6-----------|-------------------|-------------------|-------------------|
E|---4---------------|-------------------|-------------------|-------------------|
                                                                         bbbbbbb
e|-------------------|-------------------|-------------------|---2---------------|
B|-------------------|---4-----------5---|-----------5-------|-------2-----------|
G|-----------3---4---|-------4-----------|---4---------------|-----------4---3---|
D|-------------------|-----------6-------|-------6-------6---|-------------------|
A|-------6-----------|-------------------|-------------------|-------------------|
E|---4---------------|-------------------|-------------------|-------------------|






************************************
 
| /   slide up
| \   slide down
| h   hammer-on
| p   pull-off
| ~   vibrato
| +   harmonic
| x   Mute note
| b   Bend - try to find right way
| pb  Pre-bend
| br  Bend release
| pbr Pre-bend release
| brb Bend release bend

************************************   
https://primanota.net/david-guetta/blast-off.htm