» 
 » 
Toy Story



David Guetta - Toy Story - tab

Бесплатный вокальный онлайн-квест VOX7
Tuning : 
Half step down = Eb | Ab | Db | Gb | Bb | eb


[Real version]

eb|12------------------------14------------------------------12-------|
Bb|---------12---------------------12-----------10--8----------10-8---|
Gb|-----------9-11-12-----------12----9-------9-------9-------------9-|
Db|----------------------12----------------11-------------10----------|
Ab|-------------------------------------------------------------------|
Eb|----0--12----------10-----------------9--------------8-------------|


[Adapted version]

eb|12-----------------------------------------------------------------|
Bb|--------------------------------12-----------10--8----------10-8---|
Gb|-----------9-11-12-------11*-12----9-------9-------9------9*-----9-|
Db|--------9*------------12----------------11-------------10----------|
Ab|------7------------------------------------------------------------|
Eb|----0--------------10-----------------9--------------8-------------|


OPTIONAL : 
The * notes are pinch harmonics (as you pick a note, your thumb is touching the string too).
This video can help you https://youtu.be/88TPGwsXJeA?t=1m33s


************************************

| b  Bend

************************************

David Guetta - Toy Story - sheets and scores

(enable)
https://primanota.net/david-guetta/toy-story.htm