» 
 » 
Ready For You



Drake - Ready For You - tab

Бесплатный вокальный онлайн-квест VOX7
-------------------------------------------------------------------------------
                           drake- ready for you
-------------------------------------------------------------------------------
Tabbed by: https://www.youtube.com/watch?v=wepvLdt4o34&list=PLEiLoniMYg9JzLE1LmDva_yLQvHBvgKOX&index=8

and http://kendrickk-t.tumblr.com/

Tuning:standard
Am7
e|------------------------------------------------------------------------------|
B|------------------------------------------------------------------------------|
G|------0-----------------------------------------------------------------------|
D|---2--------------------------------------------------------------------------|
A|-0----------------------------------------------------------------------------|
E|------------------------------------------------------------------------------|

Cadd9
e|------------0-----------------------------------------------------------------|
B|---------3--------------------------------------------------------------------|
G|-------0----------------------------------------------------------------------|
D|----2-------------------------------------------------------------------------|
A|--3---------------------------------------------------------------------------|
E|------------------------------------------------------------------------------|

F
e|------------------------------------------------------------------------------|
B|-------------0----------------------------------------------------------------|
G|----------0-------------------------------------------------------------------|
D|-------2----------------------------------------------------------------------|
A|----3-------------------------------------------------------------------------|
E|-1----------------------------------------------------------------------------|

G
e|--3-------------------------------------------------------------------------|
B|--3-------------------------------------------------------------------------|
G|--0-------------------------------------------------------------------------|
D|--0-------------------------------------------------------------------------|
A|--2-------------------------------------------------------------------------|
E|--3-------------------------------------------------------------------------|


************************************

| /   slide up
| \   slide down
| h   hammer-on
| p   pull-off
| ~   vibrato
| +   harmonic
| x   Mute note
| b   Bend
| pb  Pre-bend
| br  Bend release
| pbr Pre-bend release
| brb Bend release bend

************************************

Drake - Ready For You - sheets and scores

(enable)
https://primanota.net/drake/ready-for-you.htm