» 
 » 
Weston Road Flows



Drake - Weston Road Flows - tab

Чайковский в рок-аранжировке! Очень необычно, послушай!
Finger pick, add any suggestions in the comments if something does not sound right. Good song, it is a sample
but good song.


[Version 1]

e|--(4)---------x---------(8)--------x-------x------x-------------------|
B|---6----------4---------10---------6-------4------4-------------------|
G|---6----------3---------8----------6-------4------4-------------------|
D|---4----------4---------10---------6-------4------3-------------------|
A|---6----------3---------8----------x-------x------4-------------------|
E|---x----------x---------x----------6-------4------x-------------------|


[Version 2]

e|--(4)---------x---------x---------x-------x------x-------------------|
B|---6----------4---------1---------6-------4------4-------------------|
G|---6----------3---------2---------6-------4------4-------------------|
D|---4----------4---------1---------6-------4------3-------------------|
A|---6----------3---------x---------x-------x------4-------------------|
E|---x----------x---------1---------6-------4------x-------------------|


************************************

| x    Dead note
| (n)  Ghost note

************************************

Drake - Weston Road Flows - sheets and scores

(enable)
https://primanota.net/drake/weston-road-flows.htm