Login via:  Facebook Google Twitter Vk Yandex Mail.ru
PrimaNota.net - world's largest free sheets, tabulatures, chords and lyrics archive


Ella Vos - You Dont Know About Me - tab

Print
Поддержи лучшую metal-группу Петербурга!

You Dont Know About Me

  • chords, lyrics

G                          B          Gm
E|----------3h-5--3-----------|----------------------------------|
B|-3/-5--------------5----3---|-1----3/-5------------------------|
G|----------------------------|------------2---------------0--2--|
D|----------------------------|----------------------------------|
A|----------------------------|----------------------------------|
E|----------------------------|----------------------------------|
                     FC~
      G                         B         Gm
E|----------3h-5--3-----------|----------------------------------|
B|-3/-5--------------5----3---|-1----3/-5------------------------|
G|----------------------------|------------2---------------------|
D|----------------------------|----------------------------------|
A|----------------------------|----------------------------------|
E|----------------------------|----------------------------------|
                     FC~

[Verse 1]
    G                   B    Gm
You don't know what you talk about
     G             B             Gm
It's all lies that come out your mouth
        Gm
Cause I wake up
           Gm    C          B
This is my body, this is my war
   G                B        Gm
We can't wait 'till you come around

[Pre-Chorus]
Gm  C           B     G
Say what you're gonna say
Gm C          B  G
I  don't care anyway

[Chorus]
                     G
You don't know about me
G                  C      B
You don't know how hard I try
                     G
You don't know about me
G                   C   B
Why the hell should you decide?
                     G                C  B
You don't know about everything going on inside
                     G
You don't know about me
                     C   B
You don't know about me
                     G
You don't know about me

[Bridge]
      G                         B         Gm
E|----------3h-5--3-----------|----------------------------------|
B|-3/-5--------------5----3---|-1----3/-5------------------------|
G|----------------------------|------------2---------------------|
D|----------------------------|----------------------------------|
A|----------------------------|----------------------------------|
E|----------------------------|----------------------------------|
                    FC~

[Verse 2]
    G            B             Gm
You know I don't care what you think
G           B         Gm
I get high, don't say anything
        Gm
Cause I wake up
           Gm    C          B
This is my body, this is my war
  G             C      B
Can't we try to change everything

[Pre-Chorus]
Gm  C           B     G
Say what you're gonna say
Gm C          B  G
I  don't care anyway

[Chorus]
                     G
You don't know about me
G                  C      B
You don't know how hard I try
                     G
You don't know about me
G                   C   B
Why the hell should you decide?
                     G                C  B
You don't know about everything going on inside
                     G
You don't know about me
                     C   B
You don't know about me
                     G
You don't know about me

[Bridge]             
                     G   C  B
You don't know about me

[Chorus]
                     G
You don't know about me
G                  C      B
You don't know how hard I try
                     G
You don't know about me
G                   C   B
Why the hell should you decide?
                     G                C  B
You don't know about everything going on inside
                     G
You don't know about me
                     C   B
You don't know about me
                     G
You don't know about me


      G                         B         Gm
E|----------3h-5--3-----------|----------------------------------|
B|-3/-5--------------5----3---|-1----3/-5------------------------|
G|----------------------------|------------2---------------------|
D|----------------------------|----------------------------------|
A|----------------------------|----------------------------------|
E|----------------------------|----------------------------------| x2
                    FC~


 
| /  Slide-up 
| ~  Vibrato 
| BD Bend Down
| h  Hammer-on
https://primanota.net/ella-vos/you-dont-know-about-me-chords.htm