» 
 » 
Cherry



Harry Styles - Cherry - chords

Чайковский в рок-аранжировке! Очень необычно, послушай!
Key: 
0
Zoom: 
100%
Autoscroll: 
0
Easier!
Fingering
Score mode
Cherry
Harry Styles
[ Predicted key: G ]

Harry Styles
"Cherry"


Standard tuning. Capo 7th fret.

NOTE: The lead guitar [Solo] and final rhythm part
      [Voicemail] are performed WITHOUT G CAPO.



                 Coucou
  G
e|--------------------------------|--------------------------------|
B|--------------------------------|--------------------------------|
G|0---------------0---------------|--------------------------------|
D|2---------------2---2-2-2-------|--------------------------------|
A|3---------------3---3-3-3-------|--------------------------------|
E|--------------------------------|--------------------------------|

[Main Guitar Figure]
  G                                Gadd9           G
e|3---------3-----0---------0-----|----------0---------------------|
B|--------------------------------|3---------------1---------1-----|
G|----0-------0-------0-------0---|----0-------0-------0-------0---|
D|--------------------------------|--------------------------------|
A|3-------3-------3-------3-------|3-------3-------3-------3-------|
E|--------------------------------|--------------------------------|
  1 e + a 2 e + a 3 e + a 4 e + a etc.

  G                                Gadd9           G       G/F
e|3---------3-----0---------0-----|----------0--------------(0)----|
B|--------------------------------|3---------------1---------1-----|
G|----0-------0-------0-------0---|----0-------0-------0-----------|
D|--------------------------------|--------------------------------|
A|3-------3-------3-------3-------|3-------3-------3-------2-------|
E|--------------------------------|--------------------------------|

  Gm7                              G7sus4          Gm7
e|3---------3-----0---------0-----|----------0---------------------|
B|---------------------------(1)--|3---------------1---------1-----|
G|----0-------0-------0-------0---|----0-------0-------0-------0---|
D|--------------------------------|--------------------------------|
A|0-------0-------0-------0-------|0-------0-------0-------0-------|
E|--------------------------------|--------------------------------|

  Badd9           B7M  
e|3---------3-----0---------0-----|----------0--------------(0)----|
B|--------------------------------|3---------------1---------1-----|
G|----2-------2-------2-------2---|----2-------2-------2-------2---|
D|3-------3-------3-------3-------|3-------3-------3-------3-------|
A|--------------------------------|--------------------------------|
E|--------------------------------|--------------------------------|

[Chorus]
G
   Don't you call him "baby"
                            G/F
   We're not talking lately
Gm7                                          B7M  
   Don't you call him what you used to call me


[Verse 1]
G                                    G/F     Gm7
I, I confess I can tell that you are at your best
                            B7M  
I'm selfish so I'm hating it
G                                        G/F  Gm7
I noticed that there's a piece of you in how   I dress
                   B7M  
Take it as a compliment


[Chorus]
G
   Don't you call him "baby"
                            G/F
   We're not talking lately
Gm7                                          B7M  
   Don't you call him what you used to call me


[Solo]
  G                                                             G/F
e|----------------|----------------|----------------|----------------|
B|----------------|----------------|----------------|----------------|
G|----------------|----------------|----------------|----------------|
D|5-------------7/|9-7-5------9p7h9|5-------------7/|9-7-5------9p7h9|
A|----------------|----------------|----------------|----------------|
E|----------------|----------------|----------------|----------------|

  Gm7                               B7M  
e|----------------|----------------|----------------|----------------|
B|----------------|----------------|----------------|----------------|
G|----------------|----------------|----------------|----------------|
D|2-------------4/|5-4-2------5p4h5|5-------------7/|9-7-5------9p7h9|
A|----------------|----------------|----------------|----------------|
E|----------------|----------------|----------------|----------------|


[Verse 2]
G
I, I just miss
                        G/F       Gm7
I just miss your accent and your friends
                             B7M  
Did you know I still talk to them?


[Bridge]
C                                   B        Gm    Cm
Does he take you walking 'round his parents' gallery?


[Chorus]
G
   Don't you call him "baby"
                            G/F
   We're not talking lately
Gm7                                          B7M  
   Don't you call him what you used to call me
G
   Don't you call him "baby" (Coucou)
                            G/F
   We're not talking lately
Gm7                                          B7M  
   Don't you call him what you used to call me (Coucou)



G


[Voicemail]
C  G  Gm  C

G       Gm    C
   Coucou ! Tu dors ? Oh, j'suis désolée...
             G   C G                   Gm
   Bah non... Nan, c'est pas important...
C
   Ouais, on a été à la plage, et maintenant on-
G
   Parfait ! Harry



***********************************

| /   Slide-up
| h   Hammer-on
| p   Pull-off

***********************************

Harry Styles - Cherry - sheets and scores

(enable)
Another song content:
  • Chords, lyrics

https://primanota.net/harry-styles/cherry-chords.htm