Login via:  Facebook Google Twitter Vk Yandex Mail.ru
PrimaNota.net - world's largest free sheets, tabulatures, chords and lyrics archive


Harry Styles - Kiwi - tab

Print
Поддержи лучшую metal-группу Петербурга!

Kiwi

  • chords, lyrics

Standard tuning.
  B   G   G    G   B
e|-------------3---5---|
B|9---7---12---3---5---|
G|9---7---12---4---6---|
D|9---7---12---5---7---|
A|7---5---10---5---7---|
E|-------------3---5---|


[Verse 1]
               B 
She worked her way through a cheap pack of cigarettes
G    B                                    G 
Hard liquor mixed with a bit of intellect
G   B 
And all the boys, they were saying they were into it
       G                 B 
Such a pretty face, on a pretty neck


[Chorus]
                 B                     G         B 
She's driving me crazy, but I'm into it, but I'm into it

I'm kinda into it
G    G       B                                         G 
It's getting crazy, I think I'm losing it, I think I'm losing it
  B                               G  B                G    G   B 
I think she said "I'm having your ba-by, it's none of your business"
            G    G  B                     G         B 
"I'm having your ba-by, it's none of your business"
                 G  B                G    G   B 
"I'm having your ba-by, it's none of your business"
            G    G  B                    G                   B 
"I'm having your ba-by, it's none of your, it's none of your"


[Verse 2]
     B 
It's New York, baby, always jacked up
G       B                                       G 
Holland Tunnel for a nose, it's always backed up
     G      B 
When she's alone, she goes home to a cactus
     G                          B     
In a black dress, she's such an actress


[Chorus]
                 B                     G         B 
She's driving me crazy, but I'm into it, but I'm into it

I'm kinda into it
G    G       B                                         G 
It's getting crazy, I think I'm losing it, I think I'm losing it
  B                               G  B                G    G   B 
I think she said "I'm having your ba-by, it's none of your business"
            G    G  B                     G         B 
"I'm having your ba-by, it's none of your business" (it's none of your, it's none of your)
                 G  B                G    G   B 
"I'm having your ba-by, it's none of your business"
            G    G  B                    G                   B 
"I'm having your ba-by, it's none of your, it's none of your"


[Bridge]

e|----------------|------------------------|------------2---|----2---2---2-2-2-2-2-2-|
B|----------------|------------------------|------------3---|----3---3---3-3-3-3-3-3-|
G|----------------|------------------------|------------2---|----2---2---2-2-2-2-2-2-|
D|----------------|-----/2-----0-----------|------------0---|----0---0---0-0-0-0-0-0-|
A|0---------------|--------------2p0-------|0---------------|------------------------|
E|------3b----0---|------------------3b--0-|------3b--------|------------------------|

e|----------------|------------------------|3---3---3---3---|5---5-5-5-5-5---|
B|----------------|------------------------|3---3---3---3---|5---5-5-5-5-5---|
G|----------------|------------------------|4---4---4---4---|6---6-6-6-6-6---|
D|----------------|-----/2-----0-----------|5---5---5---5---|7---7-7-7-7-7---|
A|0---------------|--------------2p0-------|5---5---5---5---|7---7-7-7-7-7---|
E|------3b----0---|------------------3b--0-|3---3---3---3---|5---5-5-5-5-5---|

e|----------------|----------------|----------------|----------------|
B|----------------|----------------|----------------|------------9~--|
G|----------------|----------------|----------------|--------7/9-9~--|
D|----2-----------|----------------|----2-----------|--------7/9-9~--|
A|------x-----x-x-|----------------|------x-----x-x-|--------5/7-----|
E|0-----------x-x-|5---3p0-5---3p0-|0-----------x-x-|5---3p0---------|

e|----------------|----------------|----------------|(0)-------------|
B|----------------|----------------|----------------|(0)-------------|
G|----------------|----------------|----------------|(0)-------------| Let string feedback
D|----2-----------|----------------|----2-----------|(0)-------------|
A|------x-----x-x-|----------------|------x-----x-x-|----------------|
E|0-----------x-x-|5---3p0-5---3p0-|0-----------x-x-|----------------|

Bm
She sits beside me like a silhouette
Bm
Hard candy dripping on me 'til my feet are wet
Bm
And now she's all over me, it's like I paid for it
Bm
It's like I paid for it, I'm gonna pay for this

[Solo]
  G     B                                           G     B                  
e|------------------------|------------------------|------------------------|------------------------|
C|10b12brb~~~~~~~~~~~~~~~~|~~~~~~~~~~~~~~~~~~~~~~~~|pb12r~~~~~~~~~~~~~~~~~~~|------------10-p8-10-p8-|
G|------------------------|------------------------|------------------------|------------------------|
D|------------------------|------------------------|------------------------|------------------------|
A|------------------------|------------------------|------------------------|------------------------|
E|------------------------|------------------------|------------------------|------------------------|
  G     B                                           G                        B   
e|------------------------|------------------------|------------------------|------------------------|
C|10b12brb~~~~~~~~~~~~~~~~|~~~~~~~~~~~~~~~~~~~~~~~~|pb12r~~~~~~~~~~~~~~~~~~~|------------10-p8-10-p8-|
G|------------------------|------------------------|------------------------|------------------------|
D|------------------------|------------------------|------------------------|------------------------|
A|------------------------|------------------------|------------------------|------------------------|
E|------------------------|------------------------|------------------------|------------------------|

[Chorus]
                 G                  B 
It's none of your, it's none of your
                 G  B                G    G   B 
"I'm having your ba-by, it's none of your business"
            G    G  B                     G                           B 
"I'm having your ba-by, it's none of your business" (it's none of your, it's none of your)
                 B 
"I'm having your ba-by, it's none of your business"
                 G  B                     G                           B 
"I'm having your ba-by, it's none of your business" (it's none of your, it's none of your)

B     G 
B     G 
B     G 
B     G 
B  G  B
B  G B  G
B  G B  G
B G B
https://primanota.net/harry-styles/kiwi-chords.htm