Login via:  Facebook Google Twitter Vk Yandex Mail.ru
PrimaNota.net - world's largest free sheets, tabulatures, chords and lyrics archive


Harry Styles - Woman - tab

Print
Поддержи лучшую metal-группу Петербурга!

Woman

  • chords, lyrics

Harry Styles
"Woman"

Standard tuning. Capo 1st fret. Corrections welcome.

  FM   G/G C7sus4 Cm7  G
e|0----0----3-----1----0----|
B|1----1----1-----1----1----|
G|2----0----2-----2----0----|
D|3----2----0-----0----2----|
A|3----3---------------3----|
E|1----0--------------------|



N.C.
Should we just search romantic comedies on Netflix and see what we find

  FM
  Synth
e|5~------------------------------|---------------------------/8---|
B|--------------------------------|--------------------------------|
G|--------------------------------|--------------------------------|
D|--------------------------------|--------------------------------|
A|--------------------------------|--------------------------------|
E|--------------------------------|--------------------------------|
 |Lead guitar
e|--------------------------------|--------------------------------|
B|--------------------------------|--------------------------------|
G|--------------------------------|--------------------------------|
D|--------------------------------|--------------------------------|
A|--------3-5-------------3-5-----|--------3-5---------x---5---3~--|
E|--------------------------------|--------------------------------|

  C7sus4
e|--------------------------------|--------------------------------|
B|8~------------------------------|--------------------------------|
G|--------------------------------|--------------------------------|
D|--------------------------------|--------------------------------|
A|--------------------------------|--------------------------------|
E|--------------------------------|--------------------------------|
 |
e|--------------------------------|--------------------------------|
B|--------------------------------|--------------------------------|
G|--------------------------------|--------------------------------|
D|--------------------------------|--------------------------------|
A|--------3-5---------x-x-3-5-----|--------3-5-------------3h5p3~--|
E|--------------------------------|--------------------------------|

[Verse 1]
FM
I'm selfish, I know
                             G/G
I don't ever want to see you with him
    FM
I'm selfish, I know
                                 G/G
I told you, but I know you never listen

[Pre-Chorus]
  Cm7               G                                Cm7
e|--8---5~------------------------------------------------5---8---5~--5-5-5---------------------|
B|-x-------6-8-8b10-r8~--8---8--8----8-8-8-----------6~----------------------8--8------8--------|
G|--------------------------------9~-------9--------------------------------------9------9------|
D|-------------------------------------------10-------------------------------------10-----10---|
A|----------------------------------------------------------------------------------------------|
E|----------------------------------------------------------------------------------------------|

Cm7                                          G
   I hope you can see, the shape that I'm in

While he's touching your skin
Cm7                                             G
   He's right where I should, where I should be
   
But you're making me bleed

[Chorus]
FM
  Woman! Woman! (La La La La La)
C7sus4
  W-Woman! Woman!
FM
  Woman! Woman! (La La La La La)
C7sus4
  W-Woman! Woman!


[Verse 2]
FM
Tempted, you know
                          G/G
Apologies are never gonna fix this
FM
  I'm empty, I know
                             G/G
Promises are broken like the stitches


[Pre-Chorus 2]
Cm7                                           G
   I hope you can see, the shape I've been in

While he's touching your skin
Cm7                                    G
This thing upon me, howls like a beast

You flower, you feast

[Solo]
 FM                                C7sus4
e|-----------------8-----------------------------------------------------|
B|8b10---8b10r8-6-----5~--------6---8b10~~--10r8~------------------------|
G|------------------------5-5h7------------------------------------------|
D|-----------------------------------------------------------------------|
A|-----------------------------------------------------------------------|
E|-----------------------------------------------------------------------|

  FM                                C7sus4             
e|-----------------8-----------------------------------------------------|
B|8b10---8b10r8-6-----5~---------6---8b10~~--10r8~-----8b10r8-6-8--6-6---|
G|-------------------------5-5h7-----------------------------------------|
D|-----------------------------------------------------------------------|
A|-----------------------------------------------------------------------|
E|-----------------------------------------------------------------------|

[Chorus]
FM
  Woman! Woman! (La La La La La)
C7sus4
  W-Woman! Woman!
FM
  Woman! Woman! (La La La La La)
C7sus4
  W-Woman! Woman!

[Break]
(Note: this section is just variations on the Pre-Chorus lead)

Cm7   G
Cm7   G
Cm7   G
Cm7   G
Cm7   G
Cm7   G

[Ending]
FM
  Woman!
https://primanota.net/harry-styles/woman-chords.htm