Login via:  Facebook Google Twitter Vk Yandex Mail.ru
PrimaNota.net - world's largest free sheets, tabulatures, chords and lyrics archive


Hozier - In The Woods Somewhere - chords, lyrics, tab

Print
ViraMusic 2019 в Петербурге 4 апреля 2019! Скидка 10%!

View chords, lyrics, tab "In The Woods Somewhere"

Version

In The Woods Somewhere
Hozier
[Intro and Verse]
e|-----5-5/4----------------------------------------------0-------0----------|
B|------------2-2-------5/7-7-5----------------5-----------------------------|
G|-------------------------------2/1-------4/6-------------------------------|
D|-----------------------------------------------7-7/6------6-6/7----7-------|
A|---------------------------------------------------------------------------|
E|-2-------------------------------------------------------------------------|


[Interlude]
   Gm                           C5      Gm                           C5
e|---------------------------------------------------------------------------|
B|---------------------------------------------------------------------------|
G|------------------------------2-2-2--------------------------------2-2-2---|
D|-4---4-4--4---4-4--4---4-4----2-2-2---4---4-4--4---4-4--4---4-4----2-2-2---|
A|-4---4-4--4---4-4--4---4-4----0-0-0---4---4-4--4---4-4--4---4-4----0-0-0---|
E|-0h2-2-2--0h2-2-2--0h2-2-2------------0h2-2-2--0h2-2-2--0h2-2-2------------|

Verse repeats the intro to Go with the vocals and Gm chords are played.
At the end of every third line play either the interlude above or just:

[nterlude with no C5:
e|------------------------------|
B|------------------------------|
G|------------------------------|
D|-4---4-4--4---4-4--4---4-4----|
A|-4---4-4--4---4-4--4---4-4----|
E|-0h2-2-2--0h2-2-2--0h2-2-2----|

Gm
Her head was warm,
Gm
Her skin was soaked.
Gm                                    (Interlude with no C5)
I called your name 'til the fever broke.

Gm
When I awoke 
Gm
The moon still hung.
Gm                                      (Interlude)
The night so black that the darkness hummed

Gm
I raised myself. 
Gm
My legs were weak.
Gm                         (Interlude with no C5)
I prayed my mind be good to me.

Gm
An awful noise 
Gm
Filled the air.
Gm                                  (Interlude)
I heard a scream in the woods somewhere.

Gm
Ooooo Ooooo Ooooo 
C
Ooooo Ooooo Ooooo
F                (Interlude)
Ooooo Ooooo Ooooo

Gm
A woman's voice!
Gm
I quickly ran 
Gm                            (Interlude no C5)
Into the trees with empty hands.

Gm
A fox it was, 
Gm
He shook afraid.
Gm                           (Interlude)
I spoke no words, no sound he made.

He plays this really quick in between verses:
e|--------2------------------------------------------------------------------|
B|----5/2------------2-------------------------------------------------------|
G|--------------4/2---------2-2-2--------------------------------------------|
D|------------------------2-2-2-2---(Interlude)------------------------------|
A|--------------------------0-0-0--------------------------------------------|
E|---------------------------------------------------------------------------|

Gm
His bone exposed,
Gm
His hind was lame.
Gm                         (Interlude with no C5)
I raised a stone to end his pain.

Gm
What caused the wound? 
Gm
how large the teeth?
Gm                           (Interlude)
I sure knew eyes were watching me.

Gm
Ooooo Ooooo Ooooo 
C
Ooooo Ooooo Ooooo
F                It sounds like he plays C5 then C#5 then does the Interlude
Ooooo Ooooo Ooooo

Gm
The creature lunged.
Gm
I turned and ran
Gm
To save a life I didn't have.

Gm
Deer in the chase 
Gm
There as I flew
Gm                        (Interlude)
Forgot all prayers of joining you.

(Only lead fingerpicking)
I clutched my life
(No chord)
And wished it kept.
(No chord)
My dearest love I'm not done yet

(No chord)
How many years
(No chord)
I know I'll bear
(No chord)                              (Interlude)
I found something in the woods somewhere.

Gm
Ooooo Ooooo Ooooo 
C
Ooooo Ooooo Ooooo
F                 End on F
Ooooo Ooooo Ooooo


Chords: 
These are the positions I use, but feel free to use any you want
Gm    C5       C       F
2      x       0       2
2      xor1    0       3
2      2       1       2
4      2       2       0
4      0       2       x
2      x       0       x


************************************

| h  Hammer-on
| /  Slide up

************************************
https://primanota.net/hozier/in-woods-somewhere.htm