Login via:  Facebook Google Twitter Vk Yandex Mail.ru
PrimaNota.net - world's largest free sheets, tabulatures, chords and lyrics archive


Hozier - Moments Silence Common Tongue - chords, lyrics

Print
Лучшая metal-группа Петербурга

View chords, lyrics "Moments Silence Common Tongue"

Version

Moments Silence Common Tongue
Hozier
For a detailed video lesson follow the link:






e|--------------------------------------------|
B|--------------------------------------------|
G|----------2/4-2-0-2----0-2---2/4-2-0-2-0----|
D|--2-2-2-2------------2-----2-------------2--|
A|--------------------------------------------|
E|--------------------------------------------|

e|-----------------------------------------------|
B|-----------------------------------------------|
G|----------2/4-2-0-2-----0-2----2/4-42p0-2-0---|
D|--2-2-2-2-------------2-----2----------------2-|
A|-----------------------------------------------|
E|-----------------------------------------------|

e|--0-------3------------------------------|
B|----3/5-5---5-3-0-3-0--------------------|
G|----------------------2-0-2-0------------|
D|------------------------------2-2-2-2----|
A|-----------------------------------------|
E|-----------------------------------------|


[Chorus]

e|------------------------------|
B|------------------------------|
G|------------------------------|
D|------------------------------|
A|----2---2---2---2---2---2-----|
E|--0---3---0---3---0---3---0---|

e|-----------------|
B|-----------------|
G|--42p0----4-4---|
D|--------2--------|
A|-----------------|
E|-----------------|


************************************

| p   Pull-off
| /   Slide up
|    Slide down

************************************

[Verse 1]
When stunted hand earns place with man by mere monstrosity
Alarms are struck and shore is shook by sheer atrocity
A cure I know that soothes the soul, does so impossibly
A moment's silence when my baby puts the mouth on

Me and my babe relax and catch the manic rhapsody
All reason flown, as God looks on in abject apathy
A squall, and all of me is a prayer in perfect piety
A moment's silence when my baby puts the mouth on me

[Chorus 1]
When the meaning is gone
There is clarity
And the reason comes on the common tongue of your loving me

And it's easy done
Our little remedy
And the reason comes on the common tongue of your loving me

[Verse 2]
What yields the need for those who lead us oh so morally
Those that would view the same we Do through their deformity
Who view the deed as power's creed, as pure authority
This moment's silence when my baby puts the mouth on me

[Chorus 2]
Since it all begun
To it's reckoning
There the reason comes on the common tongue of your loving me

Be thankful some know it lovingly
There the reason comes in the common tongue of your loving me

[Chorus 3]
Like a heathen clung to the homily
Let the reason come on the common tongue of your loving me

So summon on the pearl rosary
Let the reason come on the common tongue of your loving me
https://primanota.net/hozier/moments-silence-common-tongue.htm