Login via:  Facebook Google Twitter Vk Yandex Mail.ru
PrimaNota.net - world's largest free sheets, tabulatures, chords and lyrics archive


Imagine Dragons - I Dont Know Why - табы

Играешь на гитаре? Зарабатывай! Ищем наставников по гитаре
Version

F                                    Am
e|---19-20----19-20----19-20----19-20-|---19-20----19-20----19-20----19-20-|
B|------------------------------------|17-------17-------17-------17-------|
G|19-------19-------19-------19-------|------------------------------------|
D|------------------------------------|------------------------------------|
A|------------------------------------|------------------------------------|
E|------------------------------------|------------------------------------|
  Dm
e|---19-20----19-20----19-20----19-20-|---19-20----19-20----19-20----19-20-|
B|18-------18-------18-------18-------|18-------18-------18-------18-------|
G|------------------------------------|------------------------------------|
D|------------------------------------|------------------------------------|
A|------------------------------------|------------------------------------|
E|------------------------------------|------------------------------------|

[Verse 1]
            F                      Am
We could be strangers in the night
            Dm
We could be passing in the shadows
               F                  Am
We couldn't be closer if we tried
           Dm
When we're caught in the headlights
            F                  Am
We could be faces in the crowd
            Dm
We could be passing in the shadows
           F                   Am
Upping the risk of being found
           Dm
When we're caught in the headlights


[Pre-chorus]
F    Am
dangerous
     Dm
Your love is always dangerous
            F         Am
and now I'm lost and [?]
      Dm
We're livin' in a lying [?]


[chorus]
  F                        Am                       Dm
e|------------------------|------------------------|------------------------|------------------------|
B|------------------------|------------------------|------------------------|------------------------|
G|------------------------|------------------------|------------------------|----------9---7---75---|
D|------------------------|------------------------|------------------------|----------------------7-| x2
A|------------------------|------------------------|------------------------|------------------------|
E|------------------------|------------------------|------------------------|------------------------|

F                      Am                          Dm
I don't know why but I guess it's got something to do with you

To do with you
F                      Am                          Dm
I don't know why but I guess it's got something to do with you

To do with you


[Verse 2]
  F                        Am                       Dm
e|--7-8---7-8---7-8---7-8-|--7-8---7-8---7-8---7-8-|--7-8---7-8---7-8---7-8-|--7-8---7-8---7-8---7-8-|
B|------------------------|5-----5-----5-----5-----|6-----6-----6-----6-----|6-----6-----6-----6-----|
G|7-----7-----7-----7-----|------------------------|------------------------|------------------------|
D|------------------------|------------------------|------------------------|------------------------| x2
A|------------------------|------------------------|------------------------|------------------------|
E|------------------------|------------------------|------------------------|------------------------|

        F             Am
I was a fakeing alibi
            Dm
Trading the truth in for lie, oh
            F                 Am
We were the essence of desire
          Dm
and we're caught in the headlights


[Pre-chorus]
F    Am
dangerous
     Dm
Your love is always dangerous
            F         Am
and now I'm lost and [?]
      Dm
We're livin' in a lying [?]


[chorus]
F                      Am                          Dm
I don't know why but I guess it's got something to do with you

To do with you
F                      Am                          Dm
I don't know why but I guess it's got something to do with you

To do with you (I don't know why)
F                      Am                          Dm
I don't know why but I guess it's got something to do with you (I don't know)

To do with you (I don't know why)
F                      Am                          Dm
I don't know why but I guess it's got something to do with you

To do with you


[bridge]
F
Tell me that you love me
Am
Tell me that you love me
Dm
Tell me that you love me

Tell me that you love me
F
Tell me that you love me (dangerous}
Am
Tell me that you love me
Dm
Tell me that you love me (Your love is always dangerous}

Tell me that you love me


[chorus]
N.C.
I don't know why
F                      Am                          Dm
I don't know why but I guess it's got something to do with you (I don't know)

To do with you (I don't know why)
F
I don't know why (I don't know why)
      Am                          Dm
but I guess it's got something to do with you (do with, do with, do with)

To do with you (I don't know why)
F                      Am                          Dm
I don't know why but I guess it's got something to do with you (I don't know)

To do with you (I don't know why)
F                      Am                          Dm
I don't know why but I guess it's got something to do with you

To do with you
https://primanota.net/imagine-dragons/i-dont-know-why.htm