» 
 » 
Radioactive



Imagine Dragons - Radioactive - chords

Чайковский в рок-аранжировке! Очень необычно, послушай!

Download sheets "Radioactive"

  1.   Radioactive.pdf [66,62 Kb, downloads: 43]
  2.   Radioactive.pdf [47,78 Kb, downloads: 22]

Download tabs "Radioactive"

Download all tabs in one archive:
  1. Download all tabs in archive Imagine_Dragons_-_Radioactive_all_tabs_00912841.zip   Imagine_Dragons_-_Radioactive_all_tabs_00912841.zip [63,25 Kb, downloads: 42]
Download tabs one by one:
  1.   Radioactive_Intro.gpx [26,83 Kb, downloads: 18]
  2.   Radioactive.gp5 [77,07 Kb, downloads: 20]
  3.   Radioactive_Acoustic.gp5 [20,60 Kb, downloads: 8]
  4.   Radioactive.gpx [44,28 Kb, downloads: 14]
  5.   Radioactive_Version_Perfect_Symbol.gp5 [72,49 Kb, downloads: 12]

chords, lyrics, tab "Radioactive"

Key: 
0
Zoom: 
100%
Autoscroll: 
0
Easier!
Fingering
Score mode
Radioactive
Imagine Dragons
[ Predicted key: D ]

-------------------------------------------------------------------------------
             Radioactive (iTunes session) Acoustic - Imagine Dragons
-------------------------------------------------------------------------------

Tuning: standard EADGBE
Capo on 4th
All tabs relative to capo

This is the way the acoustic iTunes session version is done, also shown in this video:
https://www.youtube.com/watch?v=wsVFmCoykZ4

There's another version of this song up here but it didn't have the intro and violin bit, so here it is:

==Guitar 1 intro 1==
-Played five times

e|------3------5------7-----5-----|------3---h5-5------3-3---------|
B|--3h5----3h5----3h5-----3-------|--3h5----3h5-5--3h5-----5-------|
G|--------------------------------|--------------------------------|
D|--------------------------------|--------------------------------|
A|--------------------------------|--------------------------------|
E|--------------------------------|--------------------------------|

==Guitar 1 intro 2==
-Played twice after intro 1

e|------3------3------3------3------3-|
B|--3h5----3h5----3h5----3h5----3h5---|
G|------------------------------------|
D|------------------------------------|
A|------------------------------------|
E|------------------------------------|

==Guitar 2 (violin part)==
-Comes in at start of second intro 1, played four times

e|----------------------------------------------|
B|----------------------------------------------|
G|----------0---2h4----------0---2.2---0--------|
D|--2---2h4-----------0--0h2---2---------4-2----|
A|----------------------------------------------|
E|----------------------------------------------|

When intro 2 starts Guitar 2 can strum an Em chord until the verse starts.

Rest of song:

* = strum the chord down twice then mute with palm.

==Verse 1==
Em         G             D
I'm waking up to ash and dust
          A                    Em
I wipe my brow and I sweat my rust
              G              D *
I'm breathing in the chemicals
Em           G           D                 A
I'm breaking in, shaping up, then checking out on the prison bus
Em       G            D
This is it, the apocalypse
A *
Whoa-oh

==Chorus==
           Em            G
I'm waking up, I feel it in my bones
D                  A
Enough to make my system blow
Em                      G
Welcome to the new age, to the new age
D                       A
Welcome to the new age, to the new age
Em    G     D                A
Whoa, whoa, I'm radioactive, radioactive
Em    G     D (one strum)    A (one strum)
Whoa, whoa, I'm radioactive, radioactive

(Em, G, D, A) x2

==Verse 2==
Em *          G *           D *
   I raise my flags, don my clothes
           A *          Em *
It's a revolution, I suppose
        G *              D *
painted red to fit right in
A *
Whoa
Em           G           D                 A
I'm breaking in, shaping up, then checking out on the prison bus
Em      G             D
This is it, the apocalypse
A (one strum)
Whoa-oh

==Chorus==
           Em            G
I'm waking up, I feel it in my bones
D                  A
Enough to make my system blow
Em                      G
Welcome to the new age, to the new age
D                       A
Welcome to the new age, to the new age
Em    G     D                A
Whoa, whoa, I'm radioactive, radioactive
Em    G     D                A
Whoa, whoa, I'm radioactive, radioactive

==Bridge==
Em          G   D          A
All systems go, sun hasn't died
Em         G      D             A
Deep in my bones, straight from inside

==Chorus==
           Em            G
I'm waking up, I feel it in my bones
D                  A
Enough to make my system blow
Em                      G
Welcome to the new age, to the new age
D                       A
Welcome to the new age, to the new age
Em    G     D                A
Whoa, whoa, I'm radioactive, radioactive
Em    G     D (one strum)    A (one strum)
Whoa, whoa, I'm radioactive, radioactive


************************************

| h   hammer-on
| .   staccato

************************************

Imagine Dragons - Radioactive - sheets and scores

(enable)
https://primanota.net/imagine-dragons/radioactive.htm