Login via:  Facebook Google Twitter Vk Yandex Mail.ru
PrimaNota.net - world's largest free sheets, tabulatures, chords and lyrics archive


Iris - Somn Bizar - bass tab

Print
ViraMusic 2019 в Петербурге 4 апреля 2019! Скидка 10%!

Somn Bizar


-------------------------------------------------------------------------------
                             Somn Bizar - Iris
-------------------------------------------------------------------------------
Tabbed by: Andu Needle
E-mail: sulfur_in_my_lungs@yahoo.com

Intro:

G|--------------------------------------------------------------------|
D|--------------------------------------------------------------------|
A|-2~-----0~----------------------------------------------------------|
E|-----3~-------------------------------------------------------------|(x2)

G|--------------------------------------------------------------------|
D|--------------------------------------------------------------------|
A|-2~-2222222-0~-00-2~-----0~-----------------------------------------|
E|-------------------3~-----------------------------------------------|

G|--------------------------------------------------------------------|
D|--------------------------------------------------------------------|
A|-2~-2222222-0~-00-2~--00~-------------------------------------------|
E|--------------------------------------------------------------------|

Verse:

G|--------------------------------------------------------------------|
D|----0----0----------------------------------------------------------|
A|-22---22---2----00---2-000--2~-----0~-------------------------------|
E|-------------3-----3------------3~----------------------------------|(x2)

Pre chorus:

G|--------------------------------------------------------------------|
D|----0----0----------------------------------------------------------|
A|-22---22---2----00-2-00000------------------------------------------|
E|-------------3------------------------------------------------------|(x3)

G|--------------------------------------------------------------------|
D|--------------------------------------------------------------------|
A|----------5---5---5--------------7---7---7--------------------------|
E|-3-2-3~-3---3---3---3~--5-4-5~-5---5---5---5~-----------------------|

Chorus:

G|------------2---2---------------------------------------------------|
D|-4---4--------0-----------------------------------------------------|
A|---2--------------0-0-----------------------------------------------|
E|-------3-3----------------------------------------------------------|(x4)

Verse 2 is the same as the first one!
Pre chorus 2 is the same as the first one!
Chorus 2 is the same as the first one!

Solo:

G|--------------------------------------------------------------------|
D|--------------------------------------------------------------------|
A|-55533333-22200000--------------55533-------------------------------|
E|-------------------00022222-333-------------------------------------|

G|-----------------------------33225777-------------------------------|
D|--------------------------------------------------------------------|
A|----------33311000------0011----------------------------------------|
E|-55566666----------2233---------------5-5-5-5-5-5-0~----------------|

After solo is the chorus which is played til the end of the song.
The last part is made only of As.   
https://primanota.net/iris/somn-bizar-chords.htm