» 
 » 
Please



Jeremy Zucker - Please - chords

Бесплатный вокальный онлайн-квест VOX7
Key: 
0
Zoom: 
100%
Autoscroll: 
0
Easier!
Fingering
Score mode
Please
Jeremy Zucker
[ Predicted key: G ]

The chords Go as follows - F C G#m

Chord Shapes

F Major Chord Shape
e|-5-|
B|-7-|
G|-7-|
D|-7-|
A|-5-|
E|-5-|

C Major Chord Shape
e|-7-|
B|-9-|
G|-9-|
D|-9-|
A|-7-|
E|-7-|

Gm Minor Chord Shape
e|-9--|
B|-10-|
G|-11-|
D|-11-|
A|-9--|
E|-9--|

Picking Pattern
  F x4                            C x4
e|-------------------------------|-------------------------------------------|
B|--7--7----7--7----7--7---7--7--|--9--9----9--9----9--9----9--9-------------|
G|------7-------7-------7------7-|------9-------9-------9-------9------------|
D|-------7-------7-------7------7|-------9-------9-------9-------9-----------|
A|5-------5-------5-------5------|7-------7-------7-------7------------------|
E|-------------------------------|-------------------------------------------|
  G#m x4                                  C x4
e|---------------------------------------|-----------------------------------|
B|--10--------10--------10--------10-----|--9--9----9--9----9--9----9--9-----|
G|------11--------11--------11--------11-|------9-------9-------9--------9---|
D|-------11--------11--------11--------11|-------9-------9-------9--------9--|
A|9---------9---------9---------9--------|7-------7-------7-------7----------|
E|---------------------------------------|-----------------------------------|

And repeat this for the whole song.


Melody - I think this is played on a ukulele, but here are the notes for guitar

e|----------------------------------|----------------------------------------|
B|----------------------------------|----------------------------------------|
G|9-9-9--6--------------------------|9-9-9--6--------------------------------|
D|-----------------9---11----9---7--|-----------------------9---11----9---7--|
A|----------------------------------|----------------------------------------|
E|----------------------------------|----------------------------------------|

e|----------------------------------|-----------------------------------------------|
B|----------------------------------|-----------------------------------------------|
G|9-9-9--6--------------------------|9-9-9--6---------------------------------------|
D|-----------------9---11----9---7--|-----------------------9---11----9---7---7/9---|
A|----------------------------------|-----------------------------------------------|
E|----------------------------------|-----------------------------------------------|



************************************

| /  Slide up

************************************

You're still in the shower
Don't know where you're gonna Go
I wish I had the power
To make this house feel more like home
I won't sleep a minute
Leave the light on by the bed
The bed you should be in, yeah
It's not how it's supposed to end
Please don't leave me here
I don't know where I started
Please don't leave me here
I don't know where my heart is
I'll see you when I see you
It hurts, you'll never know
'Cause maybe you'll come running
When you're done being alone
I swear I'll wait forever
If it means not letting Go
I'll put you under pressure
Were you scared of getting close?
Please don't leave me here
I don't know where I started
Please don't leave me here
I don't know where my heart is
All these bridges that we're burning
Tables that we're turning
I won't let this Go to a middle ground
Promises you're breaking
Parts of me you're taking
I don't know myself when you're not around
Please don't leave me here
I don't know where I started
Please don't leave me here
I don't know where my heart is

Jeremy Zucker - Please - sheets and scores

(enable)
Another song content:
  • Chords, lyrics

https://primanota.net/jeremy-zucker/please-chords.htm