Login via:  Facebook Google Twitter Vk Yandex Mail.ru
PrimaNota.net - world's largest free sheets, tabulatures, chords and lyrics archive


Justin Bieber - Let Me Love You - tab


[Chorus]

e|-----0-0------------0-0--------1-0-0----1-0-0---|
B|-1-3-----1-1-1--1-3-----0-0-0-------------------|
G|-------------------------------------2--------2-|
D|------------------------------------------------|
A|------------------------------------------------|
E|------------------------------------------------|

[Breakdown]

1st time:

e|---0--------0--------0----------0-----0h1p0----------0h1p0---|
B|-1---3-1--1---3-1--1---3-1--1-----3-1------------1-----------|
G|------------------------------0-------------2--2---2-------2-|
D|-------------------------------------------------------------|
A|-------------------------------------------------------------|
E|-------------------------------------------------------------|

2nd time

e|---0--------0--------0----------0-----1p0----------1p0---|
B|-1---3-1--1---3-1--1---3-1--1-----3-1----------1---------|
G|------------------------------0-----------2--2---2-----2-|
D|---------------------------------------------------------|
A|---------------------------------------------------------|
E|---------------------------------------------------------|

************************************

| h  Hammer-on
| p  Pull-off

************************************
https://primanota.net/justin-bieber/let-me-love-you.htm