» 
 » 
Cross Off



Mark Morton - Cross Off (feat. Chester Bennington) - chords

Key: 
0
Zoom: 
100%
Autoscroll: 
0
Easier!
Fingering
Score mode
Cross Off
Mark Morton
[ Predicted key: D ]

Band/Artis: Mark Morton
Song:       Cross Off(Ft.Chester Bennington)
Album:      Anesthetic
Tuning:     Drop D (D,A,D,G,B,E)
BPM:        132BPM
Based of Stian Antonsen's guitar cover!

X - Palm Mute
P.H - Pinch Harmonic
/ - Slide up
 - Slide Down
p - Pull off


INTRO(0:00 - 0:14)
Gtr.1

e|----------------------------------------------------------------------------------------------------------|
B|----------------------------------------------------------------------------------------------------------|
G|----------------------------------------------------------------------------------------------------------|
D|----------------------------------------------------------------------------------------------------------|
A|-----------5p0---------7-8-7-5-7-5---------5p0---------7-8-7-5-7-5---------5p0-------7-8-7-5-8---------5p0|
D|-0-0-0-0-------0-0-0-0-------------7-7-7-7-----7-7-7-7-------------8-8-8-8----8-8-8-8----------5-5-5-5----|
   x x x x       x x x x             x x x x     x x x x             x x x x    x x x x          x x x x
e|-------------------------|
B|-------------------------|
G|-------------------------|
D|-------------------------|
A|---------7-8-7-5-7-5-----|
D|-5-5-5-5-----------------|
   x x x x
GTR.2(0:00 - 0:14)
Keep repeating this all the way till the pause
e|-------------------------------------------------------|
B|-------------------------------------------------------|
G|-------------------------------------------------------|
D|-19-12-0-0-19-12-0-0-19-12-0-0-19-12-0-0-19-12-0-0-----|
A|-------------------------------------------------------|
D|-------------------------------------------------------|

GTR.3 ( 0:00 - 0:14) I think this harmony is there
Keep repeating this all the way till the pause
e|-------------------------------------------------------|
B|-------------------------------------------------------|
G|-------------------------------------------------------|
D|-24-19-0-0-24-19-0-0-24-19-0-0-24-19-0-0-24-19-0-0-----|
A|-------------------------------------------------------|
D|-------------------------------------------------------|


VERSE.1(0:14 - 0:36)
GTR.1 Play this 3times
e|------------------------------------------------------------------------------------------------------|
B|------------------------------------------------------------------------------------------------------|
G|------------------------------------------------------------------------------------------------------|
D|-3p0-------------2p0-----3p0--5/6--3p0-------------3--5/6-3--5/6-3p0-------------2p0-----3p0-5/6------|
A|-3p0-------------2p0-----3p0--5/6--3p0-------------3--5/6-3--5/6-3p0-------------2p0-----3p0-5/6------|
D|-3p0-0-0-0-0-0-0-2p0-0-0-3p0--5/6--3p0-0-0-0-0-0-0-3--5/6-3--5/6-3p0-0-0-0-0-0-0-2p0-0-0-3p0-5/6------|
       x x x x x x     x x               x x x x x x                   x x x x x x     x x
e|-------------------------|
B|-------------------------|
G|-------------------------|
D|-3p0-------------6--5--3-|
A|-3p0-------------6--5--3-|
D|-3p0-0-0-0-0-0-0-6--5--3-|
       x x x x x x
VERSE.2(0:36 - 0:42)
GTR.1 Play this 2times
e|-------------------------------------------------------|
B|-------------------------------------------------------|
G|-------------------------------------------------------|
D|-------------------------------------------------------|
A|-------------------------------------------------------|
D|-2-2-2-2-2-2-2-2-22222-----2p0-3p0-0-0-2p0-2-3-5-3-2-0-|
   x x x x x x x x xxxxx             x x
BRIDGE(0:42 - 0:51
GTR.1 Play this 2times
e|----------------------------------------------------------------|
B|----------------------------------------------------------------|
G|----------------------------------------------------------------|
D|-----------------------------------------5----------------------|
A|-------------------------------------5-6--6-5-3---3-------------|
D|-0-0-0-0-0-0-0-0-000-0-0-0-0-0-0-0-0------------6---6-5-3-5-3-0-|
   x x x x x x x x xxx x x x x x x x x
CLEAN PART(0:51 - 0:58)
GTR.1 Play this 2times
e|-----------------------------------|
B|-----------------------------------|
G|--------9------9-----------109----|
D|------0--0-------0-0-----7-------5-|
A|----5--------0----0----0---------5-|
D|-0---------7---------8-----------5-|

CHORUS
GTR.1(0:58 - 1:12)
Play this 2times
e|-----------------------------------------------------------------|
B|-----------------------------------------------------------------|
G|-----------------------------------------------------------------|
D|-0-0-0-0-0-0-0-0-7-7-7-7-7-7-7-7-8-8-8-8-8-8-8-8-5-5-5-5-5-5-5-5-|
A|-0-0-0-0-0-0-0-0-7-7-7-7-7-7-7-7-8-8-8-8-8-8-8-8-5-5-5-5-5-5-5-5-|
D|-0-0-0-0-0-0-0-0-7-7-7-7-7-7-7-7-8-8-8-8-8-8-8-8-5-5-5-5-5-5-5-5-|

GTR.1(01:12 - 01:27)
Play this 2times
e|----------------------------------------------------------------------------------------------------------|
B|----------------------------------------------------------------------------------------------------------|
G|----------------------------------------------------------------------------------------------------------|
D|----------------------------------------------------------------------------------------------------------|
A|-----------5p0---------7-8-7-5-7-5---------5p0---------7-8-7-5-7-5---------5p0-------7-8-7-5-8---------5p0|
D|-0-0-0-0-------0-0-0-0-------------7-7-7-7-----7-7-7-7-------------8-8-8-8----8-8-8-8----------5-5-5-5----|
   x x x x       x x x x             x x x x     x x x x             x x x x    x x x x          x x x x
e|-------------------------|
B|-------------------------|
G|-------------------------|
D|-------------------------|
A|---------7-8-7-5-7-5-----|
D|-5-5-5-5-----------------|

SOLO(01:27 - 01:34
GTR.1
e|------------------------------------------------------------------------------------------------------|
B|------------------------------------------------------------------------------------------------------|
G|------------------------------------------------------------------------------------------------------|
D|-3p0-------------2p0-----3p0--5/6--3p0-------------3--5/6-3--5/6-3p0-------------2p0-----3p0-5/6------|
A|-3p0-------------2p0-----3p0--5/6--3p0-------------3--5/6-3--5/6-3p0-------------2p0-----3p0-5/6------|
D|-3p0-0-0-0-0-0-0-2p0-0-0-3p0--5/6--3p0-0-0-0-0-0-0-3--5/6-3--5/6-3p0-0-0-0-0-0-0-2p0-0-0-3p0-5/6------|
       x x x x x x     x x               x x x x x x                   x x x x x x     x x
e|-------------------------|
B|-------------------------|
G|-------------------------|
D|-3p0-------------6--5--3-|
A|-3p0-------------6--5--3-|
D|-3p0-0-0-0-0-0-0-6--5--3-|
       x x x x x x
GTR.2 LEAD
e|------------------------------------------------------------------------------------------------|
A|---13B(15)--13B(15)--8/10-13p10--10-------------------------------------------------------------|
G|-------------------------------12--12p10--12/13-12-10--10B(12)-107-----------------------------|
D|----------------------------------------12-----------12------------------10-109-95-53-3P.H---|
A|------------------------------------------------------------------------------------------------|
D|------------------------------------------------------------------------------------------------|

VERSE(01:34 - 01:49)
GTR.1 Play this 2times
e|------------------------------------------------------------------------------------------------------|
B|------------------------------------------------------------------------------------------------------|
G|------------------------------------------------------------------------------------------------------|
D|-3p0-------------2p0-----3p0--5/6--3p0-------------3--5/6-3--5/6-3p0-------------2p0-----3p0-5/6------|
A|-3p0-------------2p0-----3p0--5/6--3p0-------------3--5/6-3--5/6-3p0-------------2p0-----3p0-5/6------|
D|-3p0-0-0-0-0-0-0-2p0-0-0-3p0--5/6--3p0-0-0-0-0-0-0-3--5/6-3--5/6-3p0-0-0-0-0-0-0-2p0-0-0-3p0-5/6------|
       x x x x x x     x x               x x x x x x                   x x x x x x     x x
e|-------------------------|
B|-------------------------|
G|-------------------------|
D|-3p0-------------6--5--3-|
A|-3p0-------------6--5--3-|
D|-3p0-0-0-0-0-0-0-6--5--3-|
       x x x x x x
VERSE.2(01:49 - 01:56)
GTR.1 Play this 2times
e|-------------------------------------------------------|
B|-------------------------------------------------------|
G|-------------------------------------------------------|
D|-------------------------------------------------------|
A|-------------------------------------------------------|
D|-2-2-2-2-2-2-2-2-22222-----2p0-3p0-0-0-2p0-2-3-5-3-2-0-|
   x x x x x x x x xxxxx             x x
BRIDGE(01:56 - 02:03)
GTR.1 Play this 2times
e|----------------------------------------------------------------|
B|----------------------------------------------------------------|
G|----------------------------------------------------------------|
D|-----------------------------------------5----------------------|
A|-------------------------------------5-6--6-5-3---3-------------|
D|-0-0-0-0-0-0-0-0-000-0-0-0-0-0-0-0-0------------6---6-5-3-5-3-0-|
   x x x x x x x x xxx x x x x x x x x
CLEAN PART(02:03 - 02:10)
GTR.1 Play this 2times
e|-----------------------------------|
B|-----------------------------------|
G|--------9------9-----------109----|
D|------0--0-------0-0-----7-------5-|
A|----5--------0----0----0---------5-|
D|-0---------7---------8-----------5-|

CHORUS
GTR.1(02:10 - 02:25)
Play this 2times
e|-----------------------------------------------------------------|
B|-----------------------------------------------------------------|
G|-----------------------------------------------------------------|
D|-0-0-0-0-0-0-0-0-7-7-7-7-7-7-7-7-8-8-8-8-8-8-8-8-5-5-5-5-5-5-5-5-|
A|-0-0-0-0-0-0-0-0-7-7-7-7-7-7-7-7-8-8-8-8-8-8-8-8-5-5-5-5-5-5-5-5-|
D|-0-0-0-0-0-0-0-0-7-7-7-7-7-7-7-7-8-8-8-8-8-8-8-8-5-5-5-5-5-5-5-5-|

GTR.1(02:25 - 02:38 )

e|----------------------------------------------------------------------------------------------------------|
B|----------------------------------------------------------------------------------------------------------|
G|----------------------------------------------------------------------------------------------------------|
D|----------------------------------------------------------------------------------------------------------|
A|-----------5p0---------7-8-7-5-7-5---------5p0---------7-8-7-5-7-5---------5p0-------7-8-7-5-8---------5p0|
D|-0-0-0-0-------0-0-0-0-------------7-7-7-7-----7-7-7-7-------------8-8-8-8----8-8-8-8----------5-5-5-5----|
   x x x x       x x x x             x x x x     x x x x             x x x x    x x x x          x x x x
e|-------------------------|
B|-------------------------|
G|-------------------------|
D|-------------------------|
A|---------7-8-7-5-7-5-----|
D|-5-5-5-5-----------------|
   x x x x
e|-----------------------------------------------------------------------------------------------------|
B|-----------------------------------------------------------------------------------------------------|
G|-----------------------------------------------------------------------------------------------------|
D|-----------------------------------------------------------------------------------------------5-----|
A|-----------5p0---------7-8-7-5-7-5---------5p0---------7-8-7-5-7-5---------5p0-------7-8-7-5-8-5-----|
D|-0-0-0-0-------0-0-0-0-------------7-7-7-7-----7-7-7-7-------------8-8-8-8----8-8-8-8----------5-----|
   x x x x       x x x x             x x x x     x x x x             x x x x    x x x x
BREAKDOWN1(02:38 - 03:00)
GTR.1 Play this 5times
e|-------------------------------------------------------------------------|
B|-------------------------------------------------------------------------|
G|-------------------------------------------------------------------------|
D|-------------------------------------------------------------------------|
A|-------------------------------------------------------------------------|
D|-12-7-0-0-0-0-0-0-10p0-0-0-10-13-13-0-0-0-0-0-0-10-12-13-13-10-12-13-13--|
        x x x x x x      x x          x x x x x x
GTR.1 Play this 1time
e|--------------------------------------------------------|
B|--------------------------------------------------------|
G|--------------------------------------------------------|
D|------------------------------------------------6--5--3-|
A|------------------------------------------------6--5--3-|
D|-12-7-0-0-0-0-0-0-10p0-0-0-10-13-13-0-0-0-0-0-0-6--5--3-|
        x x x x x x      x x          x x x x x x
BREAKDOWN2(03:00 - 03:16)
GTR.1 Play this 2times
e|------------------------------------------------------------------------------------------------------|
B|------------------------------------------------------------------------------------------------------|
G|------------------------------------------------------------------------------------------------------|
D|-3p0-------------2p0-----3p0--5/6--3p0-------------3--5/6-3--5/6-3p0-------------2p0-----3p0-5/6------|
A|-3p0-------------2p0-----3p0--5/6--3p0-------------3--5/6-3--5/6-3p0-------------2p0-----3p0-5/6------|
D|-3p0-0-0-0-0-0-0-2p0-0-0-3p0--5/6--3p0-0-0-0-0-0-0-3--5/6-3--5/6-3p0-0-0-0-0-0-0-2p0-0-0-3p0-5/6------|
       x x x x x x     x x               x x x x x x                   x x x x x x     x x
e|-------------------------|
B|-------------------------|
G|-------------------------|
D|-3p0-------------6--5--3-|
A|-3p0-------------6--5--3-|
D|-3p0-0-0-0-0-0-0-6--5--3-|
       x x x x x x
CLEAN PART(03:16 - )
GTR.1
e|-------------------------------------------------------------------------------------------------|
B|-------------------------------------------------------------------------------------------------|
G|--------9------9-----------109-----------7--------------9-------9-------------109------------7-|
D|------0--0-------0-0-----7------7-------0---0----------0---0--------0-0------7------7--------0---|
A|----5--------0----0----0------------10-------10-----5---------0------0-----0--------------10-----|
D|-0---------7---------8------------10------------0-----------7------------8-------------10--------|

CHORUS
GTR.1(02:10 - 02:25)
Play this 2times
e|-----------------------------------------------------------------|
B|-----------------------------------------------------------------|
G|-----------------------------------------------------------------|
D|-0-0-0-0-0-0-0-0-7-7-7-7-7-7-7-7-8-8-8-8-8-8-8-8-5-5-5-5-5-5-5-5-|
A|-0-0-0-0-0-0-0-0-7-7-7-7-7-7-7-7-8-8-8-8-8-8-8-8-5-5-5-5-5-5-5-5-|
D|-0-0-0-0-0-0-0-0-7-7-7-7-7-7-7-7-8-8-8-8-8-8-8-8-5-5-5-5-5-5-5-5-|

GTR.1(02:25 - 02:38 )
Play this 2times
e|----------------------------------------------------------------------------------------------------------|
B|----------------------------------------------------------------------------------------------------------|
G|----------------------------------------------------------------------------------------------------------|
D|----------------------------------------------------------------------------------------------------------|
A|-----------5p0---------7-8-7-5-7-5---------5p0---------7-8-7-5-7-5---------5p0-------7-8-7-5-8---------5p0|
D|-0-0-0-0-------0-0-0-0-------------7-7-7-7-----7-7-7-7-------------8-8-8-8----8-8-8-8----------5-5-5-5----|
   x x x x       x x x x             x x x x     x x x x             x x x x    x x x x          x x x x
e|-------------------------|
B|-------------------------|
G|-------------------------|
D|-------------------------|
A|---------7-8-7-5-7-5-----|
D|-5-5-5-5-----------------|
   x x x x

OUTRO.1(0:14 - 0:36)
GTR.1 Play this 3times
e|------------------------------------------------------------------------------------------------------|
B|------------------------------------------------------------------------------------------------------|
G|------------------------------------------------------------------------------------------------------|
D|-3p0-------------2p0-----3p0--5/6--3p0-------------3--5/6-3--5/6-3p0-------------2p0-----3p0-5/6------|
A|-3p0-------------2p0-----3p0--5/6--3p0-------------3--5/6-3--5/6-3p0-------------2p0-----3p0-5/6------|
D|-3p0-0-0-0-0-0-0-2p0-0-0-3p0--5/6--3p0-0-0-0-0-0-0-3--5/6-3--5/6-3p0-0-0-0-0-0-0-2p0-0-0-3p0-5/6------|
       x x x x x x     x x               x x x x x x                   x x x x x x     x x
e|---------------------------|
B|---------------------------|
G|---------------------------|
D|-3p0-------------6--5--3-0-|
A|-3p0-------------6--5--3-0-|
D|-3p0-0-0-0-0-0-0-6--5--3-0-|
       x x x x x x


[Intro: Chester Bennington]
Cross off the days gone
Cross off the days gone
Gone by

[Verse 1: Chester Bennington]
Wasting away
A self-inflicted slow decay
What should've been, what never was
Became the end for both of us

[Pre-Chorus 1: Chester Bennington]
Heavy is the hand that points the finger (Finger)
Heavy is the heart that's filled with anger (Anger)
So lay them all to waste
Years you decided to erase
And cross off the days

[Chorus: Chester Bennington]
So black out and hide behind the lines
Keep staring down the sun and hope the
Light will finally blind your eyes from seeing
Cross off the days gone by
Cross off the days gone by
Cross off the days gone by

[Verse 2: Chester Bennington]
Cutting you free
The phantom limb was part of me
You have lived, you have lost
The separation's worth the cost

[Pre-Chorus 2: Chester Bennington]
Heavy are the words that Go unspoken (Spoken)
Heavy are the promises now broken (Broken)
Will you learn to love the taste
Of the destruction in your wake?
Cross off the days

[Chorus: Chester Bennington]
So black out and hide behind the lines
Keep staring down the sun and hope the
Light will finally blind your eyes from seeing
Cross off the days gone by
Cross off the days gone by
Cross off the days gone

[Bridge: Chester Bennington]
Gone by
Making my way back from the madness
Shifting my thoughts from the blackness
And the sadness, but the fact is
I'm swinging through life like a clenched fist
Fuck sanity, I wanna bleed
Can't kill the pain, it's everything
It's all I feel, it's what I breathe
Turn the hate I breed into what I need
Heavy is the hand that points the finger (Finger)
Heavy is the heart that's filled with anger (Anger)

[Pre-Chorus 3: Chester Bennington]
Did you survey everything you laid to waste
And cross off the days?

[Chorus: Chester Bennington]
So black out and hide behind the lines
Keep staring down the sun and hope the
Light will finally blind your eyes from seeing
Cross off the days gone by
Cross off the days gone by
Cross off the days gone by

Mark Morton - Cross Off - sheets and scores

(enable)
You can be interested to:
Another song content:
  • Chords, lyrics

https://primanota.net/mark-morton/cross-off-chords.htm