» 
 » 
Grave Digger



Matt Maeson - Grave Digger - tab

Чайковский в рок-аранжировке! Очень необычно, послушай!
[Intro]
e|---------------------------------------------------------|
B|-------0-----------------------------3x--0h1h3-----------|
G|------0-0h2p0------------------------0x--0---------------|
D|---------------0h2p0---------------2--x------------------|
A|---2-------------------2--2p0------3--x-------------3--0-2
E|---0-------------------------3---------------------------0

e|---------------------------------------------------------|
B|---0-----------------------------3x--0h1h3---------1-----|
G|--0-0h2p0------------------------0x--0-------------0-----|
D|-----------0h2p0---------------2--x----------------2-----|
A|-------------------2--2p0------3--x----------------------|
E|-------------------------3-------------------------------|

e|-------0-------------------------------------------------|
B|--3------3-0--0------------------------------------------|
G|--0-------------2p0----0---------------------------------|
D|--4--------------------0h2-------------------------------|
A|-----------------------0h3------------3\-----------------|
E|---------------------------------------------------------|

[Verse]
After this the song is just straight chords, but i prefer to just strum the
lowest strings for every chord. Like this:

    I can't run to you father...
    Em       G          C           C
e|---------------------------------------------------------|
B|---------------------------------------------------------|
G|---------------------0--x--------0-----x-----------------|
D|-2---x-----0--x------2--x--(2)(2)2-----x-----------------|
A|-2---x-----2--x------3--x--(3)(3)3-----x-----------------|
E|-0---x-----3--x------------------------------------------| x4
 

[Bridge]
  But your sweet sinless sensation...
     D        C         Em        G              D        C
e|---------------------------------------------------------------|
B|-3---x----------------------------------------3---x------------|
G|-2---x-----0--x-------------------------------2---x-----0------|
D|-0---x-----2--x------2---x-----0---x----------0---x-----2------|
A|-----------3--x------2---x-----2---x--------------------3------|
E|---------------------0---x-----3---x---------------------------|


[Chorus]
Chorus is the same as verse when played on the guitar, in the real song he adds a synthetic bass. 
    
   So tell me if I run away...
 Em       G          C           C
e|---------------------------------------------------------|
B|---------------------------------------------------------|
G|---------------------0--x--------0-----x-----------------|
D|-2---x-----0--x------2--x--(2)(2)2-----x-----------------|
A|-2---x-----2--x------3--x--(3)(3)3-----x-----------------|
E|-0---x-----3--x------------------------------------------| x4


[Verse]
     Colors blend...
  Em       G          C           C
e|---------------------------------------------------------|
B|------------------------------------0h1h3d1d0------------|
G|---------------------0--x--------0-----------------------|
D|-2---x-----0--x------2--x--(2)(2)2-----------------------|
A|-2---x-----2--x------3--x--(3)(3)3-----------------------|
E|-0---x-----3--x------------------------------------------|

  Em       G          C           C
e|---------------------------------------------------------|
B|---------------------------------------------------------|
G|---------------------0--x--------x-----------------------|
D|-2---x-----0--x------2--x--(2)(2)x-----------------------|
A|-2---x-----2--x------3--x--(3)(3)x-----------------------|
E|-0---x-----3--x------------------------------------------|

  Em       G          C           C
e|---------------------------------------------------------|
B|------------------------------------0h1h3d1d0------------|
G|---------------------0--x--------0-----------------------|
D|-2---x-----0--x------2--x--(2)(2)2-----------------------|
A|-2---x-----2--x------3--x--(3)(3)3-----------------------|
E|-0---x-----3--x------------------------------------------|

  Em       G          C           C
e|---------------------------------------------------------|
B|---------------------------------------------------------|
G|---------------------0--x--------0-----x-----------------|
D|-2---x-----0--x------2--x--(2)(2)2-----x-----------------|
A|-2---x-----2--x------3--x--(3)(3)3-----x-----------------|
E|-0---x-----3--x------------------------------------------|

[Bridge]
But your sweet sinless sensation...
     D        C         Em        G              D        C
e|---------------------------------------------------------------|
B|-3---x----------------------------------------3---x------------|
G|-2---x-----0--x-------------------------------2---x-----0------|
D|-0---x-----2--x------2---x-----0---x----------0---x-----2------|
A|-----------3--x------2---x-----2---x--------------------3------|
E|---------------------0---x-----3---x---------------------------|

[Chorus]
   So tell me if I run away...
 Em       G          C           C
e|---------------------------------------------------------|
B|---------------------------------------------------------|
G|---------------------0--x--------0-----x-----------------|
D|-2---x-----0--x------2--x--(2)(2)2-----x-----------------|
A|-2---x-----2--x------3--x--(3)(3)3-----x-----------------|
E|-0---x-----3--x------------------------------------------| x4


[Stick]
   Ain't no pint in trying to pick me up...
e|---------------------------------------------------------|
B|---------------------------------------------------------|
G|---------------------------------------------------------|
D|---------------------------------------------------------|
A|---------------------3--x--------3-----------------------|
E|-0---x-----3--x------------------------------------------|

e|---------------------------------------------------------|
B|---------------------------------------------------------|
G|---------------------------------------------------------|
D|---------------------------------------------------------|
A|---------------------3--x--------3--x--------------------|
E|-0---x-----3--x------------------------------------------|

  I'll be trying to...
e|---------------------------------------------------------|
B|---------------------------------------------------------|
G|---------------------0--x--------0-----------------------|
D|-2---x-----0---------2--x--(2)(2)2-----------------------|
A|-2---x-----2---------3--x--(3)(3)3-----------------------|
E|-0---x-----3---------------------------------------------|

e|---------------------------------------------------------|
B|---------------------------------------------------------|
G|---------------------0--x--------0-----x-----------------|
D|-2---x-----0--x------2--x--(2)(2)2-----x-----------------|
A|-2---x-----2--x------3--x--(3)(3)3-----x-----------------|
E|-0---x-----3--x------------------------------------------|

e|---------------------------------------------------------|
B|---------------------------------------------------------|
G|---------------------0--x--------0-----------------------|
D|-2---x-----0---------2--x--(2)(2)2-----------------------|
A|-2---x-----2---------3--x--(3)(3)3-----------------------|
E|-0---x-----3---------------------------------------------|


e|---------------------------------------------------------|
B|---------------------------------------------------------|
G|---------------------0--x--------0-----x-----------------|
D|-2---x-----0--x------2--x--(2)(2)2-----x-----------------|
A|-2---x-----2--x------3--x--(3)(3)3-----x-----------------|
E|-0---x-----3--x------------------------------------------|

[Bridge]
  But your sweet sinless sensation...
     D        C         Em        G              D        C
e|---------------------------------------------------------------|
B|-3---x----------------------------------------3---x------------|
G|-2---x-----0--x-------------------------------2---x-----0------|
D|-0---x-----2--x------2---x-----0---x----------0---x-----2------|
A|-----------3--x------2---x-----2---x--------------------3------|
E|---------------------0---x-----3---x---------------------------|

[Chorus]
   So tell me if i run away...
 Em       G          C           C
e|---------------------------------------------------------|
B|---------------------------------------------------------|
G|---------------------0--x--------0-----x-----------------|
D|-2---x-----0--x------2--x--(2)(2)2-----x-----------------|
A|-2---x-----2--x------3--x--(3)(3)3-----x-----------------|
E|-0---x-----3--x------------------------------------------| x3

 Em       G          C           C
e|---------------------------------------------------------|
B|---------------------------------------------------------|
G|---------------------0--x--------0-----------------------|
D|-2---x-----0--x------2--x--(2)(2)2-----------------------|
A|-2---x-----2--x------3--x--(3)(3)3-----------------------|
E|-0---x-----3--x------------------------------------------|



************************************

| x    Dead note
| h    Hammer-on
| p    Pull-off
| \    Slide down
| (n)  Ghost note
 

************************************   

Matt Maeson - Grave Digger - sheets and scores

(enable)
Another song content:
  • Chords, lyrics

https://primanota.net/matt-maeson/grave-digger-chords.htm