Login via:  Facebook Google Twitter Vk Yandex Mail.ru
PrimaNota.net - world's largest free sheets, tabulatures, chords and lyrics archive


Mighty Oaks - Seven Days - chords, lyrics, tab

Print
ViraMusic 2019 в Петербурге 4 апреля 2019! Скидка 10%!

Seven Days

  • chords, lyrics

Seven Days
Mighty Oaks
-------------------------------------------------------------------------------
                             Seven Days - Mighty Oaks
-------------------------------------------------------------------------------

Tabbed By: F.Krempel

Hi Guys, hereÂ's a really cool song played by "Mighty Oaks". Hope you enjoy ;)
By the way: Did the whole stuff by ear, so if you got any remark 
or improvement on lyrics or chords, feel welcome to leave a comment.
______________________________ 
Capo 3th Fret (or without in B)
______________________________
Here is a perhaps not completely right way to play the riff of the song, 
just to give you an example what it should approximately sound like 
e|---------------------------------------------------------------------------|
B|----------------------3-----------------------------3----------------------|
G|-------------------------2-----------------------------2-------------------|
D|--4----4--4--4--2--0--------------------------2--0--------5\4/5------------|
A|-------------------------0-------0----0--0--0------------------------------|
E|---------------------------------------------------------------------------|

************************************
| /   slide up
| \   slide down
| h   hammer-on
| p   pull-off

************************************

Tip: During the verse I actually prefer to keep my pinkie and ring finger 
on the B and e string in the 3th fret - sounds more harmonic to me

-------
Verse 1
-------

C          Em           D                   C
Seven days I'm gone to call out the wild in me

         Em           D
Carrying me, 'cross the world

C          Em           D           C
Seven days I'm yours, I live all I need

         Em           D
To carry me to the north

------
Chorus (1/2)
------
Am         G            Em              D               Am
You know if I could find the way to spend my days with you

         G      D
Oh you know I would

Am         G            Em             D           Am
You know if I could find a way to work it out with you

         G      D
Oh you know I would

-------
Verse 2
-------

C          Em           D                           C
Seven days that can be long cause you lit a fire in me

          Em           D
When you told me I could go

C          Em           D                          C
Seven days, that can be hard when you lose all you need

          Em           D
Oh your head and your heart


------
Chorus (2/2)
------
Am         G            Em              D
You know if I could find the way to spend my days with you

Am         G      D
Oh you know I would

Am         G            Em             D
You know if I could find a way to work it out with you

Am         G      D
Oh you know I would   
https://primanota.net/mighty-oaks/seven-days-chords.htm