» 
 » 
Skiptracing



Mild High Club - Skiptracing - chords

Чайковский в рок-аранжировке! Очень необычно, послушай!
  • chords, lyrics
Key: 
0
Zoom: 
100%
Autoscroll: 
0
Easier!
Fingering
Score mode
Skiptracing
Mild High Club
[ Predicted key: D ]

Mild High Club - Skiptracing
https://www.youtube.com/watch?v=n7SJM6o-RJ4

Suggested chord fingerings
    B B7/A E7M   Emmaj7 Ebm7 D7M  
e|--7---7----7-----7------6----5--|
B|--7---7----9-----8------7----7--|
G|--8---8----8-----8------6----6--|
D|--9---7----9-----9------8----7--|
A|--------------------------------|
E|--------------------------------|

   Dbm7 C7M   G7M   A7+9 D7M   Bm
e|--4-----7----2------2----2---2--|
B|--5-----8----3------2----2---3--|
G|--4-----9----4------0----2---4--|
D|--6-----10---5------2----0---4--|
A|--------------------------------|
E|--------------------------------|

   F#  D  D7/C G7M  ' Gmmaj7
e|--2--10--10----10-----10----|
B|--2--10--10----12-----11----|
G|--3--11--11----11-----11----|
D|--4--12--10----12-----12----|
A|----------------------------|
E|----------------------------|

   Gbm7 F7M   Em7 Eb7M  
e|--9-----8----7----10--------|
B|--10----10---8----11--------|
G|--9-----9----7----12--------|
D|--12----10---9----13--------|
A|----------------------------|
E|----------------------------|
[Intro]
B B7/A
E7M   Emmaj7
Ebm7 D7M  
Dbm7 C7M  

[Verse 1]
B         B7/A E7M        Emmaj7  Ebm7
  can you see, to this harmony?
            D7M                Dbm7   C7M  
can you let a quarter set you free?
 B         B7/A E7M        Emmaj7   Ebm7
this tonality, doesn't disagree,
             D7M                   Dbm7  C7M  
ought to be chromatically pleasing me.

[Chorus]
G7M       A7+9  D7M  
all that i want
    Bm            G7M  
is some good loving,
         F#
musical thoughts.


[Verse 2]
B B7/A
E7M   Emmaj7
Ebm7 D7M  
Dbm7 C7M  

B          B7/A E7M          Emmaj7   Ebm7
  i got to see, learn this history.
              D7M               Dbm7   C7M  
pull another record from your sleeve.
B       B7/A E7M          Emmaj7   Ebm7
  a mystery, if you don't believe
             D7M           Dbm7   C7M  
slip another coin in my machine.

[Chorus]
G7M       A7+9   D7M  
all that i want
    Bm                  G7M  
is some good listening,
       A7+9   D7M  
musical pop,
     Bm                G7M  
the gift keeps giving,
       A7+9        D7M  
use what you got,
     Bm              G7M   F#
not what you're missing.

[Solo] 2x
D  D7/C
G7M  ' Gmmaj7
Gbm7 F7M  
Em7 Eb7M  

[Chorus]
G7M       A7+9   D7M  
all that i want
    Bm                  G7M  
is some good listening,
       A7+9   D7M  
musical pop,
     Bm                G7M  
the gift keeps giving,
       A7+9        D7M  
use what you got,
     Bm              G7M   F#
not what you're missing.

Mild High Club - Skiptracing - sheets and scores

(enable)
Another song content:
  • Chords, lyrics

https://primanota.net/mild-high-club/skiptracing-chords.htm