» 
 » 
You And Me



Mild High Club - You And Me - tab

Чайковский в рок-аранжировке! Очень необычно, послушай!
[Intro]

e|--3--4--3--1-----1-----------3--1-----------------3--1----------------|
B|--------------4-----4--3-----------4----------------------------------|
G|--------------------------4-----------3--------2--------2--1----------|
D|----------------------------------------------------------------------|
A|----------------------------------------------------------------------|
E|----------------------------------------------------------------------| x2


[Rest of song]

                you and  me             got a thing             hopefully
e|-----3--------3--------------3--------3--------3-----6--------6--------6--|
B|-----------4-----4-----4--------4--------4--------------8--------8--------|
G|--5-----------------5-----6--------6--------6-----8--------8--------8-----|
D|--------------------------------------------------------------------------|
A|--------------------------------------------------------------------------|
E|--------------------------------------------------------------------------|
                      you like          what you feel           will you stop
e|-----6--------6--------6-----6--------6--------6-----6--------6--------6--|
B|--------7--------7--------------8--------8--------------8--------8--------|
G|--8--------8--------8-----7--------7--------7-----8--------8--------8-----|
D|--------------------------------------------------------------------------|
A|--------------------------------------------------------------------------|
E|--------------------------------------------------------------------------|
    listening?
e|-----8--------8--------8-----8---------11----11--------|
B|--------10-------10-------------9---------9------------|
G|--10-------10-------10----10-------10------------------|
D|-------------------------------------------------------|  (repeat as needed)
A|-------------------------------------------------------|
E|-------------------------------------------------------|   

Mild High Club - You And Me - sheets and scores

(enable)
You can be interested to:
Another song content:
  • Chords, lyrics

https://primanota.net/mild-high-club/you-and-me-chords.htm