# 0 1 2 3 4 5 6 7 8 9 A B C D E F G H I J K L M N O P Q R S T U V W X Y Z
Login via:  Facebook Google Twitter Vk Yandex Mail.ru



Offspring - Pretty Fly For A White Guy - chords

 » 
 » 
Pretty Fly For A White Guy
Онлайн-интенсив по вокалу

Download tabs "Pretty Fly For A White Guy"

chords, lyrics, tab, translation "Pretty Fly For A White Guy"

Key: 
0
Zoom: 
100%
Autoscroll: 
0
Easier!
Fingering
Score mode
Pretty Fly For A White Guy
Offspring
[ Predicted key: D ]

  Проигрыш:

G|---4--4-----2---4--4--9--7--|
D|---4--4--4--2---4--4--9--7--|
A|---2--2--4--0---2--2--7--5--|
E|---------2------------------|

  Версия : Play  Hm

You know it's kind of hard just to get along today
Our subject isn't cool but he fakes it anyway
He may not have a clue and he may not have style
But everything he lacks well he makes up in denial

  Припев:  X3
G|---4--4--9-10-9-10--4--4--9-10-9-10-7--7--2--7--9--9--10--9--|
D|---4--4--9-10-9-10--4--4--9-10-9-10-7--7--2--7--9--9--10--9--|
A|---2--2--7-8--7-8---2--2--7-8--7-8--5--5--0--5--7--7--8---7--|
E|-------------------------------------------------------------|
So don't debate, a player straight
You know he really doesn't get it anyway

He's gonna play the field, and keep it real
For you no way, for you no way

So if you don't rate, just overcompensate
At least you'll know you can always Go on Ricki Lake

e|---------------------------------|
B|---------------------------------|
G|---10--10--5--10--12--12--7--12--|
D|---10--10--5--10--12--12--7--12--|
A|---8---8---3--8---10--10--5--10--|
E|---------------------------------|
The world needs wannabe's.
Hey, hey! Do that brand new thing.

  Версия :
Now he's getting a tattoo he's gettin' ink done
He asked for a '13', but they drew a '31'
Friends say he's trying too hard and he's not quite hip
But in his own mind he's the dopest trip

  Припев:

  Outro:
G|---14---12-10-9-7-5-7-4---|
D|---14---12-10-9-7-5-7-4---|
A|---12---10-8--7-5-3-7-2---|
E|--------------------------|

Offspring - Pretty Fly For A White Guy - sheets and scores

(enable)
https://primanota.net/offspring/pretty-fly-for-a-white-guy.htm