Login via:  Facebook Google Twitter Vk Yandex Mail.ru
PrimaNota.net - world's largest free sheets, tabulatures, chords and lyrics archive


Panic At The Disco - This Is Halloween - tab, sheets and scores, lyrics, video

Print
Views: 3654
Лучшая metal-группа Петербурга

Download sheets "This Is Halloween"

View tab, lyrics "This Is Halloween"

Version

This Is Halloween - Panic! at the disco

this is all iv got so far, but im pretty sure that this is all right, just listen to the 
if you have trouble with the timing, i think it just repeats after this, but im not 
ill get back to it later on. please rate me

e]---------------------------------------------------------------------]
B]---------------------------------------------------------------------]
G]---------------------------------------------------------------------]
D]--3--3--3--3-4-1--1--1--1-4-3--3--3----1--1-4-3--3-------------------]
A]---------------------------------------------------------------------]
E]---------------------------------------------------------------------]

verse: boys and girls of every age...
e]----------------------------------------------------------------------]
B]----------------------------------------------------------------------]
G]----------------------------------------------------------------------]
D]-3-3-3-3-3-4-1-1--1-1-1-1-3-4-3--3-3-3-4-6--6-4-3---------------------]
A]----------------------------------------------------------------------]
E]----------------------------------------------------------------------]

this our town of halloween...
e]---------------------------]
B]---------------------------]
G]---------------------------]
D]--1-1-1-3-4-------3--------]
A]----------------3-2--------]
E]---------------------------]

this is halloween...
e]----------------------------------------------------------------------------------------------]
B]----------------------------------------------------------------------------------------------]
G]----------------------------------------------------------------------------------------------]
D]--6-6-6-4-3-6-6-6-4-3-6---------------3-4--7-7-7-6-4-7-7-7-6-4-7------------4-4---------------]
A]--------------------------------6-5-5-3-2--------------------------------------7-6-4----------]
E]-------------------------------------------------------------------------------------------6--]
Added: 08.03.2012
https://primanota.net/panic-at-the-disco/this-is-halloween.htm