Login via:  Facebook Google Twitter Vk Yandex Mail.ru
PrimaNota.net - world's largest free sheets, tabulatures, chords and lyrics archive


Panic At The Disco - Victorious Acoustic Version - tab, video

Print
Лучшая metal-группа Петербурга

View tab "Victorious Acoustic Version"

Version

https://www.youtube.com/watch?v=9LymoR1r_VU 

This is my first tab so if there are some mistakes: Im sorry :D
All of this is done by ear and watching the video (link above)
[Intro]
   
  "Tonight we are victorious..." (the best way to learn the strumming pattern is to watch the video)
e|-x--xx-xx---x--xx-xx-| x3 |-x-x-x-| 
B|-x--xx-xx---x--xx-xx-|    |-x-x-x-|
G|-x--xx-xx---x--xx-xx-|    |-x-x-x-|
D|-x--xx-xx---x--xx-xx-|    |-x-x-x-|
A|-x--xx-xx---x--xx-xx-|    |-x-x-x-|
E|-x--xx-xx---x--xx-xx-|    |-x-x-x-|

  "Oh,Oh,Oh,Ohhhh..."
e|-11-11--11-11--11-11--11-11-| x3 |-11-11--11--11-11-11-11-11-|
B|-12-12--12-12--12-12--12-12-|    |-12-12--12--12-12-12-12-12-|
G|-13-13--11-13--11-13--11-13-|    |-13-13--11--13-13-13-13-13-|
D|-13-13--11-13--11-13--11-13-|    |-13-13--11--13-13-13-13-13-|
A|-11-11--11-11--11-11--11-11-|    |-11-11--11--11-11-11-11-11-|
E|--------------------------- |    |---------------------------|

[Verse 1]
   
e|-11--11-11-11-11--------------9--9----12--12-12-11-11---11-11--11-11-11-| x2
B|-12--12-12-10-10----11--11-11-8--8----12--12-12-12-12---10-10--11-11-11-|
G|-13--13-13-12-12----11--11-11-10-10---13--13-13-13-13---12-12--12-12-12-|
D|-13--13-13-13-13----11--11-11-11-11---14--14-14-13-13---13-13--13-13-13-|
A|-11--11-11-10-10----9---9--9--8--8----14--14-14-11-11---10-10--13-13-13-|
E|-----------10-10----------------------12--12-12---------10-10--11-11-11-|

[Bridge]

  "My touch..." 
   just strum something like this
e|-x--x-xx-x-xx-| x2
B|-x--x-xx-x-xx-|
G|-x--x-xx-x-xx-|
D|-x--x-xx-x-xx-|
A|-x--x-xx-x-xx-|
E|-x--x-xx-x-xx-|
   
  "..punch drunk kiss..."
e|-11--11-11--11-11-11-11-11-11-11-11-11-11|
B|-12--12-12--12-12-12-12-12-12-12-12-12-12|
G|-13--13-13--13-13-13-13-13-13-13-13-13-13|
D|-13--13-13--13-13-13-13-13-13-13-13-13-13|
A|-11--11-11--11-11-11-11-11-11-11-11-11-11|
E|-11--11-11--11-11-11-11-11-11-11-11-11-11|

[Chorus]

e|---------------------------------------------------| 
B|--------------------------------------9-9--6-6-6---|
G|-4--4--4-4---3--3-3-3-3---6--6--6-6---9-9--8-8-8---|
D|-6--6--6-6---4--4-4-4-4---6--6--6-6---9-9--8-8-8---|
A|-6--6--6-6---4--4-4-4-4---4--4--4-4---7-7--6-8-8---|
E|-4--4--4-4---2--2-2-2-2---4--4--4-4----------------|

e|---------------------------------------------------| 
B|--------------------------(4)-(4)--(4)-(4)--9---8--|
G|-4--4--4-4---3--3-3-3-3----6---6----6---6---9---8--|
D|-6--6--6-6---4--4-4-4-4----6---6----6---6---9---6--|
A|-6--6--6-6---4--4-4-4-4----4---4----4---4---7---6--|
E|-4--4--4-4---2--2-2-2-2----4---4----4---4----------|

   after the first "until we feel alright"  
e|--11-11--11-11--11-11--11-11----11-11--11-11--11-11-|-11----| x2
B|--12-12--12-12--12-12--12-12----12-12--12-12--12-12-|-12-12-|    
G|--11-13--11-13--11-13--11-13----11-13--11-13--11-13-|-11-10-|    
D|--11-13--11-13--11-13--11-13----11-13--11-13--11-13-|-11-10-|    
A|--11-11--11-11--11-11--11-11----11-11--11-11--11-11-|-11-10-|    
E|----------------------------------------------------|-------|    
                                                       ^You have to play this part
                                                        only at the first time!  

  
[Verse 2] repeat playing the same as you did in verse 1

repeat the   [Bridge] 
and then the [Chorus]


Then there is a little [Breakdown]
"TONIGHT WE ARE VICTORIOUS..."
e|------------------|x7 |---x-xx|
B|------------------|   |---x-xx|
G|------------------|   |---x-xx|
D|------------------|   |---x-xx|
A|-----4-6-4--------|   |---x-xx|
E|-4-7--------4-2-3-|   |-4-x-xx|

after that repeat the [Chorus] one last time

But there are three chords he played as he said "Vic-to-ri-ous"

something like this
e|------------| 
B|------------|
G|----3--4--5-|
D|----4--5--6-|
A|----4--5--6-|
E|----2--3--4-|
 (vic to ri ous)

   
https://primanota.net/panic-at-the-disco/victorious-acoustic-version.htm