Login via:  Facebook Google Twitter Vk Yandex Mail.ru
PrimaNota.net - world's largest free sheets, tabulatures, chords and lyrics archive


Pink - Hurts 2B Human - аккорды


Hurts 2B Human
Pink
P!nk
"Hurts 2B Human (feat. Khalid)"

Standard tuning. Corrections welcome.


  F/C Bsus2 F   Bm7     Bm7  F    B    F      Bm7 Fmaj7/Gm Bsus2
e|----------------------7----5----3----3------------------------|
B|----------------------8----7----5----3------8----8------8-----|
G|0----0----0----0------7----7----5----4------7----7------7-----| Chords groups into Intro/Verse/Chorus,
D|0----0----0----0------9----7----5----5------------------------| Post-Chorus and Bridge respectively.
A|2----3----------------7----5----3----5------7----9------------|
E|----------3----0---------------------3------------------8-----|



  F/C     Bsus2   F                Bm7     Bsus2    F
e|--------------------------------|--------------------------------|
B|--------------------------------|--------------------------------|
G|------0-------0-------0-------0-|------0-------0-------0-------0-|
D|---0-------0-------0-------0----|---0-------0-------0-------0----|
A|2-------3-----------------------|--------3-----------------------|
E|----------------3-------3-------|0---------------3-------3-------|


[Verse 1]
         F/C              Bsus2       F
Will you make it sound so pretty even when it's not?
       Bm7                 Bsus2           F
Didn't choose but it's the only one we've got
        F/C            Bsus2
And sometimes I get so tired
           F
Of getting tired up my thoughts
           Bm7           Bsus2
You're the only one that ever makes it stop


[Chorus]
        F/C  Bsus2       F
God, it hurts      to be human
        Bm7 Bsus2        F
Without you       I'd be losing
        F/C Bsus2                F
And someday       we'll face the music
        Bm7   Bsus2
God, it hurts       to be human


[Post-Chorus]
             Bm7       F         B         F
But I've got you, you, you, you, you, you (hey)
               Bm7     F       B   F
And you've got me, me, me, me, too


[Verse 2]
        F/C           Bsus2          F
I could buckle and preparing for the crash
         Bm7            Bsus2          F
Like I'm walking down a road of broken glass
       F/C           Bsus2
Now if we defeat our lords and emperors
           F
And it was us against the world
          Bm7
You could count on me
    Bsus2              F
You know I'd have your back


[Chorus]
        F/C   Bsus2      F
God, it hurts      to be human
        Bm7 Bsus2        F
Without you       I'd be losing
        F/C Bsus2                F
And someday       we'll face the music
        Bm7   Bsus2
God, it hurts       to be human


[Post-Chorus]
             Bm7       F         B         F
But I've got you, you, you, you, you, you (hey)
               Bm7     F       B   F
And you've got me, me, me, me, too
             Bm7       F         B         F
But I've got you, you, you, you, you, you (hey)
               Bm7     F       B   F
And you've got me, me, me, me, too


[Bridge]
  Bm7    Fmaj7/Gm Bsus2            Bm7    Fmaj7/Gm    Bsus2
e|--------------------------------|--------------------------------|
B|------8-------8-------8-------8-|------8-------8-------8-------8-|
G|---7-------7-------7-------7----|---7-------7-------7-------7----|
D|--------------------------------|--------------------------------|
A|7-------9-----------------------|7-------9-----------------------|
E|----------------8-------8-------|----------------8-------8-------|

Bm7    Fmaj7/Gm Bsus2
   Oh, flaws   away

   If you could spend a day in my shoes
Bm7     Fmaj7/Gm   Bsus2
   Your mind would change

   If you'd known what I've gone through
Bm7   Fmaj7/Gm Bsus2
   We want the same (Yeah, we do)
   Bm7               Fmaj7/Gm
   Maybe then you'll understand
N.C.
   How it hurts to be human


[Chorus]
        F/C   Bsus2      F
God, it hurts      to be human
        Bm7 Bsus2                F
Without you (without you) I'd be losing  (Yeah, yeah, yeah)
        F/C Bsus2                F
And someday       we'll face the music
        Bm7   Bsus2
God, it hurts       to be human


[Post-Chorus]
             Bm7       F         B         F
But I've got you, you, you, you, you, you (hey)
               Bm7     F       B   F
And you've got me, me, me, me, too
             Bm7       F         B         F
But I've got you, you, you, you, you, you (hey)
               Bm7     F       B   F
And you've got me, me, me, me, too



           F/C   Bsus2       F
Oh God, it hurts       to be human
https://primanota.net/pink/hurts-2b-human.htm