Login via:  Facebook Google Twitter Vk Yandex Mail.ru
PrimaNota.net - world's largest free sheets, tabulatures, chords and lyrics archive


Sticky Fingers - Not Done Yet - аккорды

Key: 
0
Zoom: 
100%
Autoscroll: 
0
Easier!
Fingering
Score mode
Not Done Yet
Sticky Fingers
[ Predicted key: D ]

e|---------------------------------------------------------------------------|
B|----6--------5------6--------5------6--------5-------6--------6------------|
G|-------0---------------0----------------0---------------0------------------|
D|---------------------------------------------------------------------------|
A|----5-----5---------5-----5---------5-----5----------5-----5---------------|
E|---------------------------------------------------------------------------|

e|---------------------------------------------------------------------------|
B|----10---------------10---------------10---------------10------------------|
G|--------0-----9----------0-----9----------0-----9----------0-----9---------|
D|---------------------------------------------------------------------------|
A|----8------8---------8------8---------8------8---------8------8------------|
E|---------------------------------------------------------------------------|

[Verse 1]
A western home, I climb up the bridge to meet you
Got blistered toes, got time to kill on my sweet tooth
This burning air in a town don't taste like it used to
I don't know where I'm going slowly

[Verse 2]
All my life, had a dream, I get lonely
It's not like me to steer away
In the night, it's alright, days destroy me
But I don't always mean what I say

[Chorus]
But I won't see red
Despite what's within
Yes, I knew you always cared
But I'm not done yet
I'm not done yet

[Verse 3]
It's easy for the vanguard
As it's beautiful when you are there
I'm a sinner for my anger
But I'll be waiting down your stairs

[Chorus]
But I won't see red
Despite what's within
Yes, I knew you always cared
But I'm not done yet
I won't see red
Despite what's within
Yes, I knew you always cared
But I'm not done yet
I'm not done yet
I'm not done yet

Sticky Fingers - Not Done Yet - sheets and scores

(enable)
https://primanota.net/sticky-fingers/not-done-yet-chords.htm