Login via:  Facebook Google Twitter Vk Yandex Mail.ru
PrimaNota.net - world's largest free sheets, tabulatures, chords and lyrics archive


Taylor Swift - Everything Has Changed (feat. Ed Sheeran) - аккорды

Нотный режим - новая уникальная возможность на нашем сайте!

Download sheets "Everything Has Changed"

Download tabs "Everything Has Changed"

Download all tabs in one archive:
  1. Download all tabs in archive Ed_Sheeran_-_Everything_Has_Changed_all_tabs_00923038.zip   Ed_Sheeran_-_Everything_Has_Changed_all_tabs_00923038.zip [2,63 Kb, downloads: 0]
Download tabs one by one:
  1.   Everything_Has_Changed_Acoustic.gp5 [38,56 Kb, downloads: 1]

chords, lyrics, tab "Everything Has Changed"

Version

Everything Has Changed
Taylor Swift
[ Predicted key: A ]

Hi im Christian from "Christians How To Plays"

These Chords/Tabs are 100% correct.

To look how i play the strumming parts please visit my video lesson of the Song:
Youtube: https://youtu.be/mVpsiNLwFgQ

Please Comment my Videos.

Now, have fun with the Song:



Artist: Taylor Swift
Song: Everything Has Changed

Everything Has Changed

Standard Tuning
Capo on 4

Intro: D(D/F#) G

Verse:
D      Bm(Em)                  G
All I knew this morning when I woke
                    A                       *breake*
Is I know something now, know something now
               D
I didn't before
             Bm(Em)                     G
And all I've seen since 18 hours ago
Is green eyes and freckles and your smile in
    A                                   D
The back of my mind making me feel right

Quiet Guitar Pre Chorus:
  D                                 Em                             G
I just want to know you better know, you better know you, better now
                                Bm                A              D
I just want to know you better know, you better know, you better now
                                    Em                             G
I just want to know you better know, you better know, you better now
                       Bm                  A
I just want to know you, know you, know you

Chorus

D
Cause all I know is we said hello
    Bm(Em)
And your eyes look like coming home
   A                         G
 All I know is a simple name, everything has changed
 D                             Bm(Em)
All I know is we held the door, You'll be mine and I'll be yours
 A                           G *breake*
All I know since yesterday is everything has changed


Intro Strumming: D(D/F#) G


Verse:

D          Bm(Em)
And all my walls stood tall painted blue
G                        A                              *breake*
But I'll take them down, take them down and open up the door for you
D        Bm(Em)
And all I feel in my stomach is butterflies
G
The beautiful kind making up for lost time,
A
taking flight, making me feel right.

Pre Chorus:
  D                                 Em                             G
I just want to know you better know, you better know you, better now
                                Bm                A              D
I just want to know you better know, you better know, you better now
                                    Em                             G
I just want to know you better know, you better know, you better now
                       Bm                  A
I just want to know you, know you, know you

Pre Chorus Guitar Picking:

             D          D
             E  E  E  E  E  E  E  E     E  E  E  E  E  E  E  E
E||-------|--------------------------|--------------------------|
B||-------|-----3-----------3--------|-----3-----------3--------|
G||-------|--------2-----------2-----|--------2-----------2-----|
D||-------|--0--------0--0--------0--|--0--------0--0--------0--|
A||-------|--------------------------|--------------------------|
E||-------|--------------------------|--------------------------|

   Em           Em
  E  E  E  E  E  E  E  E     E  E  E  E  E  E  E  E
--------------------------|--------------------------|
-----3-----------3--------|-----3-----------3--------|
--------2-----------2-----|--------2-----------2-----|
--2--------2--2--------2--|--2--------2--2--------2--|
--------------------------|--------------------------|
--------------------------|--------------------------|

  G             G
  E  E  E  E  E  E  E  E     E  E  E  E  E  E  E  E
--------------------------|--------------------------|
-----3-----------3--------|-----3-----------3--------|
--------0-----------0-----|--------0-----------0-----|
--0--------0--0--------0--|--0--------0--0--------0--|
--------------------------|--------------------------|
--------------------------|--------------------------|

Bm                          A
  E  E  E  E  E  E  E  E     E  E  E  E  E  E  E  E
--------------------------|--------------------------|-----||
-----3-----------3--------|-----3-----------3--------|-----||
--------2-----------2-----|--------2-----------2-----|-----||
--------------------------|--------------------------|-----||
--2--------2--2--------2--|--0--------0--0--------0--|-----||
--------------------------|--------------------------|-----||


Chorus

D
Cause all I know is we said hello
    Bm(Em)
And your eyes look like coming home
   A                         G
 All I know is a simple name, everything has changed
 D                             Bm(Em)
All I know is we held the door, You'll be mine and I'll be yours
 A                           G
All I know since yesterday is everything has changed


Guitar Interlude:

Bm                   G
Come back and tell me why
                    D                   A
I'm feeling like I've missed you all this time
Bm                G
And meet me there tonight
                    D                A
And let me know that it's not all in my mind

Silent Pre Chorus Guitar Strumming Bridge:
D                                Em
I just want to know you better know you better know you better now
G                      Bm               A
I just want to know you know you know you


Chorus

D
Cause all I know is we said hello
    Bm(Em)
And your eyes look like coming home
   A                         G
 All I know is a simple name, everything has changed
 D                             Bm(Em)
All I know is we held the door, You'll be mine and I'll be yours
 A                           G
All I know since yesterday is everything has changed

D
All I know is we said hello
Bm
So dust off your highest hopes
A                            G
All I know is pouring rain and everything has changed
D
All I know is a new found brightness
Bm
All my days, I'll know your face
A                           G
All I know since yesterday is everything has changed.

END

Taylor Swift - Everything Has Changed - sheets and scores

(enable)
https://primanota.net/taylor-swift/everything-has-changed.htm