» 
 » 
Astronomia (Coffin Dance)



Tony Igy - Astronomia (Coffin Dance) - chords

Key: 
0
Zoom: 
100%
Autoscroll: 
0
Easier!
Fingering
Score mode
Astronomia (Coffin Dance)
Tony Igy
[ Predicted key: D ]

e|------------------------------------1-1-1-1--3-3-3-3-3-3-3-3-3-3----------------------------
B|-------------3-3-3-3---1-1-1-1---------------------------------------1--------------3-1------
G|--3-3-3-3----------------------------------------------------------------3-2---0-0------3-2-2
D|--------------------------------------------------------------------------------3-----------------
A|---------------------------------------------------------------------------------------------------
E|---------------------------------------------------------------------------------------------------

e|----------------5-6-5-6-5-6-------5-6-5-6-5-6-
B|-1--------------------------------------------------
G|---3-2---0-0------------------0-0----------------
D|----------------------------------------------------
A|----------------------------------------------------
E|----------------------------------------------------

Stop (stop)
(Stop, stop) stop in my mind
(Stop in my mind, stop in my mind)
Stop (stop)
(Stop, stop) stop in my mind
(Stop in my mind)
Stop (stop)
(Stop, stop) stop in my mind
(Stop in my mind, stop in my mind)
Stop
Stop in my mind

Tony Igy - Astronomia (Coffin Dance) - sheets and scores

(enable)
Another song content:
  • Chords, lyrics

https://primanota.net/tony-igy/astronomia-coffin-dance-chords.htm