» 
 » 
90210



Travis Scott - 90210 - tab

Чайковский в рок-аранжировке! Очень необычно, послушай!
Travis Scott - 90210
Tempo track: 128 bpm. 
Bar's size: 4/4

[Intro]

  (electric lead 1)
e|-------------------|-------------------|-------------------|-------------------|
B|3------------------|3---------7--------|5------------------|-------------------|
G|----------4--------|-------------------|----------5--------|5---------5--------|
D|-------------------|-------------------|-------------------|-------------------|
A|-------------------|-------------------|-------------------|-------------------|
E|-------------------|-------------------|-------------------|-------------------|
 |1    &    2    &    1    &    2    &    1    &    2    &    1    &    2    &   |
 |                                                                               |
 |(electric lead 2)                                                              |
e|14--------14-------|14-------17----14--|-------------------|-------------------|
B|-----15--------15--|-----15------------|17--------17-------|17--------20---17--|
G|-------------------|-------------------|-----17--------17--|-----17------------|
D|-------------------|-------------------|-------------------|-------------------|
A|-------------------|-------------------|-------------------|-------------------|
E|-------------------|-------------------|-------------------|-------------------|
 |1    &    2    &    1    &    2    &    1    &    2    &    1    &    2    &   |
 |                                                                               |
 |(bass)                                                                         |
G|-------------------|-------------------|-------------------|-------------------|
D|-------------------|-------------------|-------------------|-------------------|
A|2------------------|2------------------|3--------------3---|0---------0----0---|
E|---------------2---|-------------------|-------------------|-------------------|
  1    &    2    &    1    &    2    &    1    &    2    &    1    &    2    & 


  (electric lead 1)
e|-------------------|-------------------|-------------------|-------------------|
B|3------------------|3---------7--------|5------------------|-------------------|
G|----------4--------|-------------------|----------5--------|5---------5--------|
D|-------------------|-------------------|-------------------|-------------------|
A|-------------------|-------------------|-------------------|-------------------|
E|-------------------|-------------------|-------------------|-------------------|
 |1    &    2    &    1    &    2    &    1    &    2    &    1    &    2    &   |
 |                                                                               |
 |(lead 1)                                                                       |
e|-------------------|-------------------|-------------------|-------------------|
B|7---------7--------|7--------10----7---|5---------5--------|5---------8----5---|
G|-----7---------7---|-----7-------------|-----5---------5---|-----5-------------|
D|-------------------|-------------------|-------------------|-------------------|
A|-------------------|-------------------|-------------------|-------------------|
E|-------------------|-------------------|-------------------|-------------------|
 |1    &    2    &    1    &    2    &    1    &    2    &    1    &    2    &   |
 |                                                                               |
 |(bass)                                                                         |
G|-------------------|-------------------|-------------------|-------------------|
D|-------------------|-------------------|-------------------|-------------------|
A|2------------------|2--------------0-2-|3--------------3---|0----0----0----0---|
E|---------------2---|-------------------|-------------------|-------------------|
  1    &    2    &    1    &    2    &    1    &    2    &    1    &    2    &

Travis Scott - 90210 - sheets and scores

(enable)
You can be interested to:
https://primanota.net/travis-scott/90210.htm