» 
 » 
Drugs You Should Try It



Travis Scott - Drugs You Should Try It - tab

Чайковский в рок-аранжировке! Очень необычно, послушай!
-------------------------------------------------------------------------------
                       Drugs You Should Try - Travis Scott
-------------------------------------------------------------------------------
Tabbed by:Slade532
E-mail:Tommyhdz532@Gmail.com

Tuning: Standard
Capo on 4
Repeated Through Whole Song
e|---------0------------0------------0---------------------------------------|
B|-----------1------------1------------3-------------------------------------|
G|---------------------------------------------------------------------------|
D|---------------------------------------------------------------------------|
A|-0--0--0----0--------------------------------------------------------------|
E|--------------1--1--1------0--0--0-----------------------------------------|



************************************

| /   slide up
| \   slide down
| h   hammer-on
| p   pull-off
| ~   vibrato
| +   harmonic
| x   Mute note
| b   Bend
| pb  Pre-bend
| br  Bend release
| pbr Pre-bend release
| brb Bend release bend

************************************

Travis Scott - Drugs You Should Try It - sheets and scores

(enable)
https://primanota.net/travis-scott/drugs-you-should-try-it.htm