Login via:  Facebook Google Twitter Vk Yandex Mail.ru
PrimaNota.net - world's largest free sheets, tabulatures, chords and lyrics archive


Twenty One Pilots - Bandito - tab

Print
ViraMusic 2019 в Петербурге 4 апреля 2019! Скидка 10%!

View tab "Bandito"

Version

[Verse]
0:30
G|-----------------------------------------------------------|
D|-----------------------------------------------------------|
A|--------------------/7---------------------/7--------------|
E|---3--------7----5-----7--3--------7----5-----7------------|

[Chorus]
0:46
"I could take..."
G|-----------------------------------------------------------|
D|-----------------------------------------------------------|
A|--------------------/7---------------------/7--------------| (x2)
E|---3--------7----5-----7--3--------7----5-----7------------|

[Verse]
Doesn't play

[Chorus]
1:31
"I could take..."
G|-----------------------------------------------------------|
D|-----------------------------------------------------------|
A|--------------------/7-------------------------------------|
E|---3--------7----5-----7--3--------7----9--10-12-----------|

G|-----------------------------------------------------------|
D|-----------------------------------------------------------|
A|-----------------------------------------------------------|
E|---3--------7----5--------3--------7----5------------------|

[Verse]
Doesn't play

[Bridge]
Doesn't play until 3:00

G|------------------------------------------------------------|
D|------------------------------------------------------------|
A|----------------------------10--10--10--10--10------12------| (x3)
E|---5--5--5--5--7--7--7--10----------------------10------12--|

G|------------------------------------------------------------|
D|------------------------------------------------------------|
A|----------------------------10--10--10------10------12------|
E|---5--5--5--5--7--7--7--10--------------10------10------12--|

3:31
"I could take the..."
G|------------------------------------------------------------|
D|------------------------------------------------------------|
A|----------------------------10--10--10--10--10------12------|
E|---5--5--5--5--7--7--7--10----------------------10------12--|

G|------------------------------------------------------------|
D|------------------------------------------------------------|
A|------------------------------------------------------------|
E|---5--5--5--5--7--7--7--10--12--12--12--12--12--12--10--12--|

[Breakdown/Chorus]
3:46
G|-------------------------------------------------------------|
D|-------------------------------------------------------------|
A|-------------------------------------------------------------|
E|---3-3-3-3-3-3-3-/-12-12-12-12-12-12-12-12-------------------|
                                                                (x6)
G|-------------------------------------------------------------|
D|-------------------------------------------------------------|
A|-------------------------------------------------------------|
E|---7-7-7-7-7-7-7-/-9-9-9-9-10-10-10-10-----------------------|

[Chorus]
I could take the high road
But I know that I'm going low
I'm a ban-I'm a bandito
I could take the high road
But I know that I'm going low
I'm a ban-I'm a bandito
I could take the high road
But I know that I'm going low
I'm a ban-I'm a bandito

[Verse 1]
This is the sound we make
When in between two places
Where we used to bleed
And where our blood needs to be

[Chorus]
I could take the high road
But I know that I'm going low
I'm a ban-I'm a bandito
I could take the high road
But I know that I'm going low
I'm a ban-I'm a bandito
I could take the high road
But I know that I'm going low
I'm a ban-I'm a bandito

[Verse 2]
In City, I feel my spirit is contained
Like neon inside the glass, they form my brain
But I recently discovered, it's a heatless fire
Like nicknames they give themselves to uninspire
Begin with bullet, now add fire to the proof
But I'm still not sure if fear's a rival or close relative to truth
Either way it helps to hear these words bounce off of you
The softest echo could be enough for me to make it through

[Bridge]
Folina Sahlo
Folina Sahlo
Folina Sahlo
Folina
I created this world
To feel some control
Destroy it if I want
So I sing Sahlo
Folina Sahlo
Folina Sahlo

[Chorus]
I could take the high road
But I know that I'm going low
I'm a ban-I'm a bandito
I could take the high road
But I know that I'm going low
I'm a ban-I'm a bandito
I could take the high road
But I know that I'm going low
I'm a ban-I'm a bandito


I created this world
To feel some control
Destroy it if I want
So I sing Sahlo
Folina Sahlo
Folina
https://primanota.net/twenty-one-pilots/bandito.htm