Login via:  Facebook Google Twitter Vk Yandex Mail.ru
PrimaNota.net - world's largest free sheets, tabulatures, chords and lyrics archive


Twenty One Pilots - Cut My Lip - tab

Print
ViraMusic 2019 в Петербурге 4 апреля 2019! Скидка 10%!

View tab "Cut My Lip"

Version

[Pre-Chorus]
0:22
"...trying..."
G|-------------------------------------------------|
D|----------4--------------------------------------|
A|-------------7---------9-------------------------| (x4)
E|---2---5----------7-------7--/-16----------------|

[Chorus]
0:57
"...keep moving..."
G|-------------------------------------------------|
D|----------4--------------------------------------|
A|-------------7---------9-------------------------| (x2)
E|---2---5----------7-------7--/-16----------------|

[Pre-Chorus]
1:31
"...bruised..."
G|-------------------------------------------------|
D|----------4--------------------------------------|
A|-------------7---------9-------------------------| (x2)
E|---2---5----------7-------7--/-16----------------|

[Chorus]
1:48
"...keep moving..."
G|-------------------------------------------------|
D|----------4--------------------------------------|
A|-------------7---------9-------------------------| (x3)
E|---2---5----------7-------7--/-16----------------|

G|-------------------------------------------------|
D|----------4--------------------------------------|
A|-------------7-----------------------------------|
E|---2---5----------7------------------------------|

[Bridge]
2:40
"I don't mind at all..."
G|-------------------------------------------------|
D|-----------4-------------------------------------|
A|--------------7-7--------------------------------| (x4)
E|---2-2--5-----------7-7-----7-7--/-16--12--------|


3:32
G|-------------------------------------------------|
D|-------------------------------------------------|
A|-----------------------------------777-----------|
E|---222---2000---45777---5777---7999--------------|
PM..................................................

G|-------------------------------------------------|
D|-------------------------------------------------|
A|-------------------------------------777---------| (x3)
E|---222---24000---45777---45777---7999------------|
PM..................................................

G|-------------------------------------------------|
D|-------------------------------------------------|
A|---999---9977----7976----------------777---------|
E|---------------------7---45777---7999------------|
PM..................................................

G|-------------------------------------------------|
D|-------------------------------------------------|
A|-------------------------------------777---------| (x3)
E|---222---24000---45777---45777---7999------------|
PM..................................................


************************************

| x   Dead note
| g   Grace note
| (n) Ghost note
| h   Hammer-on
| p   Pull-off
| r   Release
| >   Accented note
| t   Tapping
| b   Bend
| br  Bend release
| pb  Pre-bend
| pbr Pre-bend release
| /   Slide up
|    Slide down
| ~   Vibrato
| s   Slap
| P   Pop
| PM  Palm mute
| TR  Trill
| N   Tremolo

************************************


Nico

[Verse 1]
I'll keep on tryin', might as well
If you decide all is well
I'll keep on tryin', might as well (Might as well)
If you decide all is well (All is well)

[Pre-Chorus]
Though I Am bruised, face of contusions
Know I'll keep movin'
Though I Am bruised, face of contusions
Know I'll keep movin', know I'll keep movin'

[Chorus]
Rust around the rim, drink it anyway
I cut my lip
Isn't what I want, blood is on my tongue
I cut my lip

[Verse 2]
I keep on goin' back
Even though it's me I abuse
I'll keep on goin' back
Even...

[Pre-Chorus]
Though I Am bruised, face of contusions
Know I'll keep movin'
Though I Am bruised, face of contusions
Know I'll keep movin', know I'll keep movin'

[Chorus]
Rust around the rim, drink it anyway
I cut my lip
Isn't what I want, blood is on my tongue
I cut my lip, oh oh, yeah
I cut my lip, oh oh, yeah

[Bridge]
I don't mind at all, lean on my pride
Lean on my pride, I'm a lion
I don't mind at all, lean on my pride
Lean on my pride, I'm a lion
I don't mind at all, lean on my pride
Lean on my pride, I'm a lion
I don't mind at all, lean on my pride
Lean on my pride, I'm a lion

[Pre-Chorus]
Though I Am bruised, face of contusions
Know I'll keep movin', know I'll keep movin'

[Chorus]
Rust around the rim, drink it anyway
I cut my lip
Isn't what I want, blood is on my tongue
I cut my lip
I cut my lip


I don't mind at all, lean on my pride
Lean on my pride, I'm a lion
I don't mind at all, lean on my pride
Lean on my pride, I'm a lion
https://primanota.net/twenty-one-pilots/cut-my-lip.htm