» 
 » 
2Seater



Tyler The Creator - 2Seater - bass tab

Бесплатный вокальный онлайн-квест VOX7
Tuning drop D.
This tab is only the first part of the song. Not Hairblows.
Enjoy! 


 [INTRO]
G|---------------------------------------------------------------------------|
D|---------------------------------------------------------------------------|
A|---------------------------------------------------------------------------|
D|0--------------6--------------6-5---------------------------6--------------|

  [VERSE]
G|---------------------------------------------------------------------------|
D|---------------------------------------------------------------------------|
A|---------3---5---1------1--3--------------------3---3---3---3--------------|
D|---------------------5-----------------------------------------------------|


G|---------------------------------------------------------------------------|
D|---------------------------------------3---7-------------------------------|
A|-----------------------------------5---------------------------------------|
D|5---5----------------------------------------------------------------------|

                              Pull
G|---------------------------------------------------------------------------|
D|---------------------------------------------------------------------------|
A|----------------------------5---3------------------------------------------|
D|0------------6----------------------8-5-------------------6----------------|


G|---------------------------------------------------------------------------|
D|---------------------------------------------------------------------------|
A|------------------------1------1--3------------3---3---3---3---------------|
D|5---------------------------5----------------------------------------------|

                                                        Pause
G|---------------------------------------------------------------------------|
D|---------------------------------------3---7-------------------------------|
A|-----------------------------------5---------------------------------------|
D|5---5----------------------------------------------------------------------|

                              Pull
G|---------------------------------------------------------------------------|
D|---------------------------------------------------------------------------|
A|----------------------------5---3------------------------------------------|
D|0------------6----------------------8-5-------------------6----------------|

  SaxSolo
G|---------------------------------------------------------------------------|
D|---------------------------------------------------------------------------|
A|---------------------------------------------------------------------------|
D|---------------------------------------------------------------------------|


G|---------------------------------------------------------------------------|
D|---------------------------------------------------------------------------|
A|---------------------------------------------------------------------------|
D|0--------------6--------------6-5---------------------------6--------------|

  [BREAK]
  Pizzicato
G|--------------------------------------------------------|
D|--------------------------------------------------------|
A|---------1----------------------1----5------------------|
D|1---5----------------1----5-----------------------6-6---|


G|-----------------------------------------------------------------|
D|-----------------------------------------------------------------|
A|---------1---------------------1-----5-5-----5-------------------|
D|1---5----------------1----5----------------------6-6---------6---|

                              Let ring
G|---------------------------------------------------------------------------|
D|---------------------------------------------------------------------------|
A|---------1------------------5-------5--------------------------------------|
D|1---5-------------1----5--------8-------3-------3-3----3--------------3----|


G|---------------------------------------------------------|
D|---------------------------------------------------------|
A|---------------------------------------------------------|
D|1--------1-1----1-----------1-6--6-------6-6----6--------|

  Pizzizcato
G|----------------------------------------------------------------|
D|-----------------------------------------------1----3-----------|
A|----------1----------------1----3---------4---------------------|
D|1----5----------------6-----------------------------------------|


G|-------------------------------------------------------------------------------|
D|1----1-----1-------------------------------------------------------------------|
A|-----------------------------------------------------------------------------1-|
D|--------------------4---3----1---------1-----1-1----1---1--6-----6-6----6------|


G|-----------------------------------------------------------|
D|-----------------------------4--------4-4----4----2--------|
A|4-------4-4----4-------4-6---------------------------------|
D|-----------------------------------------------------------|


G|------------------------------------------------------------------------------------|
D|5-----------------------------------------------------------------------------------|
A|----------------5---------5----------------------5-----1----------------------------|
D|---------------------8---------3----------------------------1---------1---3----6--6-|


G|-------------------------------------------------------------------------|
D|-------------------------------------------------------------------------|
A|---------------------------5--------5-------------------------------1----|
D|5-------5-5----5---------------8--------3----------------------5---------|


G|---------------------------------------------------------------------------|
D|---------------------------------------------------------------------------|
A|---------1----------------1----3---3-3--3--------3-------------------------|
D|1---5-------------1---5----------------------------6--6--------------------|

  Repeat until SaxSolo
G|---------------------------------------------------------------------------|
D|---------------------------------------------------------------------------|
A|5-------5-5--------5-4------4-4-----4-3------3-3------3--------------------|
D|---------------------------------------------------------6-----6-8--------8|
  
  SaxSolo
G|---------------------------------------------------------------------------|
D|---------------------------------------------------------------------------|
A|3--------------------3-----------------------------------------------------|
D|----------------------6------------6-5---------5-1----------1-2-----------2|


G|---------------------------------------------------------------------------|
D|---------------------------------------------------------------------------|
A|---------------------------------------------------------------------------|
D|3-------------------3-6------------6-5---------5-1----------1--3--3--3--3--|

   

Tyler The Creator - 2Seater - sheets and scores

(enable)
Another song content:
  • Chords, lyrics

https://primanota.net/tyler-the-creator/2seater-chords.htm