» 
 » 
Awkward



Tyler The Creator - Awkward - tab

Бесплатный вокальный онлайн-квест VOX7
[Intro]

e|--10-----------------------------10--------------------------------------------|
B|-----11------------------------------11----------------------------------------|
G|--------12------------------------------12-------------------------------------|
D|------------13--10--13--8--------------------13--10--13--12--------------------|
A|-------------------------------------------------------------------------------|
E|-------------------------------------------------------------------------------|

e|-------------------------------------|
B|-----------------------11------------|
G|---12----7----12-------12------------|
D|---13----8----13---------------------| x7
A|-------------------------------------|
E|-------------------------------------|


[Chorus]

e|--------------------6-----------------6------------------------------------|
B|-------------6---9------9----6-----9---------------------------------------|
G|-------6--8---------------------8------------------------------------------|
D|----8----------------------------------------------------------------------| x2
A|---------------------------------------------------------------------------|
E|---------------------------------------------------------------------------|   

Tyler The Creator - Awkward - sheets and scores

(enable)
You can be interested to:
Another song content:
  • Chords, lyrics

https://primanota.net/tyler-the-creator/awkward-chords.htm