Vampire Weekend - 2021 - chords

Чайковский в рок-аранжировке! Очень необычно, послушай!
Key: 
0
Zoom: 
100%
Autoscroll: 
0
Easier!
Fingering
Score mode
2021
Vampire Weekend
[ Predicted key: C ]

F            Gm    F     G         Fsus4         C     G
e|-------------------------------------------------------------------------------------|
B|-----5-----------6-----5-----3-----------1-----------1-----3-------------------------|
G|-----5-----------7-----5-----4-----------0-----0-----2-----4-------------------------|
D|-----5-----5-----7-----5-----5-----5-----3-----------3-----5-------------------------|
A|-----7-----------5-----3-----5-----------3-----------3-----5-------------------------|
E|-------------------------------------------------------------------------------------|
                           Chk-a                                     (Boy,        boy)

[Verse]
F      Gm          F           G
    2021, will you think about me?
               Fsus4                     C      G
I could wait a year but I shouldn't wait three (boy)

I don't wanna be (boy), mm-mm mm mm-mmh

F      Gm          F           G
    2021, will you think about us?
            Fsus4                 C     G
Copper goes green, steel beams Go rust (boy)

It's a matter of (boy)


[Instrumental]

Guitar 1 - play twice
e|-----------------------------------|----------------------------|--------------------|
B|-----------------------------------|--5---8---5-----------------|--------------------|
G|-------------------------5---5/7~--|------------7-5---5---------|--------------------|
D|-------------5---7---5-------------|------------------------5~--|--------------------| x2
A|-------5/7-------------------------|----------------------------|--75-3-------------|
E|---8-------------------------------|----------------------------|----------1-----0---|
                                                             (Boy,                 boy)
Guitar 2 - joins after Guitar 1 plays above once
e|-----------------------------------|------8---------------------|--------------------|
B|-----------------------------------|--8-------8-6-5---6----/8~--|--------------------|
G|------------------------10--10/12~-|----------------------------|--------------------|
D|--------------------10-------------|----------------------------|--53-2-------------|
A|---7---7/10--8--10-----------------|----------------------------|----------3---------|
E|-----------------------------------|----------------------------|----------------3~--|
                                                             (Boy,                 boy)
/ = slide up
 = slide down
~ = vibrato


[Verse 2]
F      Gm          F           G
    2021, will you think 'bout me?
               Fsus4                    C      G
I could wait a year but I couldn't wait three (boy)

I don't wanna be (boy)

F      Gm          F           G
    2021, will you think about us?
            Fsus4                 C     G
Copper goes green, steel beams Go rust (boy)
                                         F  
It's a matter of (boy), mm-mm mm mm-mmh

Vampire Weekend - 2021 - sheets and scores

(enable)
Another song content:
  • Chords, lyrics

https://primanota.net/vampire-weekend/2021-chords.htm