» 
 » 
Harmony Hall



Vampire Weekend - Harmony Hall - chords

Чайковский в рок-аранжировке! Очень необычно, послушай!
Key: 
0
Zoom: 
100%
Autoscroll: 
0
Easier!
Fingering
Score mode
Harmony Hall
Vampire Weekend
[ Predicted key: D ]

[Guitar 1]

e|---------------------------------------| x4
B|---------------------------------------|
G|-------------4h6p4---4h6p4-------------|
D|---------4h6---------------4h6p4-------|
A|-----4h6-------------------------4h6p4-|
E|-7-------------------------------------|


[Guitar 2]

e|---------------------------------------| x2
B|---------------------------------------|
G|-------------4h6p4---4h6p4-------------|
D|---------4h6---------------4h6p4-------|
A|-----4h6-------------------------4h6p4-|
E|-7-------------------------------------|

e|---------------------------------------| x2
B|-------------4h5p4---4h5p4-------------|
G|---------4h6---------------4h6p4-------|
D|-----4h6-------------------------4h6p4-|
A|-7-------------------------------------|
E|---------------------------------------|


************************************

| h   Hammer-on
| p   Pull-off

************************************

[Verse 1]
We took a vow in summertime
Now we find ourselves in late December
I believe that New Year's Eve
Will be the perfect time for their great surrender
But they don't remember

[Pre-Chorus]
Anger wants a voice, voices wanna sing
Singers harmonize 'til they can't hear anything
I thought that I was free from all that questionin'
But every time a problem ends, another one begins

[Chorus]
And the stone walls of Harmony Hall bear witness
Anybody with a worried mind could never forgive the sight
Of wicked snakes inside a place you thought was dignified
I don't wanna live like this, but I don't wanna die

[Post-Chorus]
Ooh, ooh, ooh
I don't wanna live like this, but I don't wanna die

[Verse 2]
Within the halls of power lies a nervous heart that beats
Like a Young Pretender's
Beneath these velvet gloves I hide
The shameful, crooked hands of a moneylender
'Cause I still remember

[Pre-Chorus]
Anger wants a voice, voices wanna sing
Singers harmonize 'til they can't hear anything
I thought that I was free from all that questionin'
But every time a problem ends, another one begins

[Chorus]
And the stone walls of Harmony Hall bear witness
Anybody with a worried mind could never forgive the sight
Of wicked snakes inside a place you thought was dignified
I don't wanna live like this, but I don't wanna die

[Post-Chorus]
Ooh, ooh, ooh
I don't wanna live like this, but I don't wanna die

[Instrumental Bridge]

[Chorus]
And the stone walls of Harmony Hall bear witness
Anybody with a worried mind could never forgive the sight
Of wicked snakes inside a place you thought was dignified
I don't wanna live like this, but I don't wanna die

[Post-Chorus]
Ooh, ooh, ooh
I don't wanna live like this, but I don't wanna die

[Chorus]
And the stone walls of Harmony Hall bear witness
Anybody with a worried mind could never forgive the sight
Of wicked snakes inside a place you thought was dignified
I don't wanna live like this, but I don't wanna die

Vampire Weekend - Harmony Hall - sheets and scores

(enable)
Another song content:
  • Chords, lyrics

https://primanota.net/vampire-weekend/harmony-hall-chords.htm